ISO-10303-21;
HEADER;
FILE_DESCRIPTION (( 'STEP AP214' ),
    '1' );
FILE_NAME ('Cube.STEP',
    '2020-02-06T18:22:44',
    ( '' ),
    ( '' ),
    'SwSTEP 2.0',
    'SolidWorks 2019',
    '' );
FILE_SCHEMA (( 'AUTOMOTIVE_DESIGN' ));
ENDSEC;

DATA;
#1 = DIRECTION ( 'NONE',  ( 0.0000000000000000000, 0.0000000000000000000, 1.000000000000000000 ) ) ;
#2 = CARTESIAN_POINT ( 'NONE',  ( 35.35533905932738463, -35.35533905932737753, 35.35533905932737753 ) ) ;
#3 = PRESENTATION_STYLE_ASSIGNMENT (( #159 ) ) ;
#4 = DIRECTION ( 'NONE',  ( 1.000000000000000000, 0.0000000000000000000, 0.0000000000000000000 ) ) ;
#5 = FILL_AREA_STYLE ('',( #148 ) ) ;
#6 = DIRECTION ( 'NONE',  ( 0.0000000000000000000, 0.0000000000000000000, 1.000000000000000000 ) ) ;
#7 = PRODUCT ( 'Cube', 'Cube', '', ( #39 ) ) ;
#8 = CARTESIAN_POINT ( 'NONE',  ( -35.35533905932738463, 35.35533905932737753, 35.35533905932737753 ) ) ;
#9 = PLANE ( 'NONE',  #132 ) ;
#10 = VERTEX_POINT ( 'NONE', #44 ) ;
#11 = DIRECTION ( 'NONE',  ( 0.0000000000000000000, 0.0000000000000000000, 1.000000000000000000 ) ) ;
#12 =( NAMED_UNIT ( * ) PLANE_ANGLE_UNIT ( ) SI_UNIT ( $, .RADIAN. ) );
#13 = VECTOR ( 'NONE', #96, 1000.000000000000000 ) ;
#14 = EDGE_CURVE ( 'NONE', #133, #10, #170, .T. ) ;
#15 = FACE_OUTER_BOUND ( 'NONE', #106, .T. ) ;
#16 = FILL_AREA_STYLE_COLOUR ( '', #150 ) ;
#17 = EDGE_CURVE ( 'NONE', #195, #133, #28, .T. ) ;
#18 = SURFACE_STYLE_USAGE ( .BOTH. , #164 ) ;
#19 = ORIENTED_EDGE ( 'NONE', *, *, #35, .F. ) ;
#20 = VERTEX_POINT ( 'NONE', #26 ) ;
#21 = COLOUR_RGB ( '',0.9960784313725490335, 0.8705882352941176627, 0.7607843137254901578 ) ;
#22 = AXIS2_PLACEMENT_3D ( 'NONE', #56, #60, #27 ) ;
#23 = ORIENTED_EDGE ( 'NONE', *, *, #35, .T. ) ;
#24 = ORIENTED_EDGE ( 'NONE', *, *, #85, .F. ) ;
#25 = PLANE ( 'NONE',  #112 ) ;
#26 = CARTESIAN_POINT ( 'NONE',  ( -35.35533905932738463, 35.35533905932737753, -35.35533905932737753 ) ) ;
#27 = DIRECTION ( 'NONE',  ( -1.962615573354718404E-16, 1.000000000000000000, 0.0000000000000000000 ) ) ;
#28 = LINE ( 'NONE', #74, #58 ) ;
#29 = CARTESIAN_POINT ( 'NONE',  ( -35.35533905932738463, 35.35533905932737753, -35.35533905932737753 ) ) ;
#30 = DIRECTION ( 'NONE',  ( 0.0000000000000000000, -1.000000000000000000, 0.0000000000000000000 ) ) ;
#31 = EDGE_CURVE ( 'NONE', #10, #46, #105, .T. ) ;
#32 = DIRECTION ( 'NONE',  ( 0.0000000000000000000, 0.0000000000000000000, 1.000000000000000000 ) ) ;
#33 = VECTOR ( 'NONE', #142, 1000.000000000000000 ) ;
#34 = CLOSED_SHELL ( 'NONE', ( #63, #171, #51, #100, #67, #166 ) ) ;
#35 = EDGE_CURVE ( 'NONE', #119, #116, #73, .T. ) ;
#36 = CARTESIAN_POINT ( 'NONE',  ( 35.35533905932737042, 35.35533905932739174, 35.35533905932737753 ) ) ;
#37 = SURFACE_STYLE_FILL_AREA ( #111 ) ;
#38 = EDGE_LOOP ( 'NONE', ( #19, #88, #157, #24 ) ) ;
#39 = PRODUCT_CONTEXT ( 'NONE', #48, 'mechanical' ) ;
#40 = ORIENTED_EDGE ( 'NONE', *, *, #91, .F. ) ;
#41 = DIRECTION ( 'NONE',  ( -1.000000000000000000, -1.962615573354719143E-16, 0.0000000000000000000 ) ) ;
#42 = VECTOR ( 'NONE', #1, 1000.000000000000000 ) ;
#43 = DIRECTION ( 'NONE',  ( -1.000000000000000000, -9.813077866773595716E-17, 0.0000000000000000000 ) ) ;
#44 = CARTESIAN_POINT ( 'NONE',  ( -35.35533905932738463, 35.35533905932737753, 35.35533905932737753 ) ) ;
#45 = CARTESIAN_POINT ( 'NONE',  ( -35.35533905932737753, -35.35533905932737753, 35.35533905932737753 ) ) ;
#46 = VERTEX_POINT ( 'NONE', #200 ) ;
#47 = PLANE ( 'NONE',  #199 ) ;
#48 = APPLICATION_CONTEXT ( 'automotive_design' ) ;
#49 = CARTESIAN_POINT ( 'NONE',  ( 35.35533905932738463, -35.35533905932737753, -35.35533905932737753 ) ) ;
#50 = VECTOR ( 'NONE', #32, 1000.000000000000000 ) ;
#51 = ADVANCED_FACE ( 'NONE', ( #198 ), #25, .T. ) ;
#52 = CARTESIAN_POINT ( 'NONE',  ( -35.35533905932737753, -35.35533905932737753, -35.35533905932737753 ) ) ;
#53 = SHAPE_DEFINITION_REPRESENTATION ( #90, #101 ) ;
#54 = VECTOR ( 'NONE', #184, 1000.000000000000000 ) ;
#55 = DIRECTION ( 'NONE',  ( -1.962615573354719143E-16, 1.000000000000000000, 0.0000000000000000000 ) ) ;
#56 = CARTESIAN_POINT ( 'NONE',  ( 35.35533905932738463, -35.35533905932737753, -35.35533905932737753 ) ) ;
#57 = PRESENTATION_LAYER_ASSIGNMENT (  '', '', ( #194 ) ) ;
#58 = VECTOR ( 'NONE', #124, 1000.000000000000000 ) ;
#59 = ORIENTED_EDGE ( 'NONE', *, *, #126, .T. ) ;
#60 = DIRECTION ( 'NONE',  ( 1.000000000000000000, 1.962615573354718404E-16, -0.0000000000000000000 ) ) ;
#61 = CARTESIAN_POINT ( 'NONE',  ( 35.35533905932737042, 35.35533905932739174, -35.35533905932737753 ) ) ;
#62 = LINE ( 'NONE', #79, #33 ) ;
#63 = ADVANCED_FACE ( 'NONE', ( #187 ), #95, .T. ) ;
#64 = CARTESIAN_POINT ( 'NONE',  ( -35.35533905932737753, -35.35533905932737753, -35.35533905932737753 ) ) ;
#65 =( NAMED_UNIT ( * ) SI_UNIT ( $, .STERADIAN. ) SOLID_ANGLE_UNIT ( ) );
#66 = SURFACE_STYLE_FILL_AREA ( #5 ) ;
#67 = ADVANCED_FACE ( 'NONE', ( #156 ), #9, .F. ) ;
#68 = AXIS2_PLACEMENT_3D ( 'NONE', #167, #55, #41 ) ;
#69 = UNCERTAINTY_MEASURE_WITH_UNIT (LENGTH_MEASURE( 1.000000000000000082E-05 ), #128, 'distance_accuracy_value', 'NONE');
#70 = ORIENTED_EDGE ( 'NONE', *, *, #114, .T. ) ;
#71 = CARTESIAN_POINT ( 'NONE',  ( -35.35533905932737753, -35.35533905932737753, -35.35533905932737753 ) ) ;
#72 = APPLICATION_CONTEXT ( 'automotive_design' ) ;
#73 = LINE ( 'NONE', #122, #143 ) ;
#74 = CARTESIAN_POINT ( 'NONE',  ( 35.35533905932738463, -35.35533905932737753, 35.35533905932737753 ) ) ;
#75 = VECTOR ( 'NONE', #123, 1000.000000000000000 ) ;
#76 = DIRECTION ( 'NONE',  ( 1.000000000000000000, 0.0000000000000000000, -0.0000000000000000000 ) ) ;
#77 = CARTESIAN_POINT ( 'NONE',  ( 0.0000000000000000000, 0.0000000000000000000, -35.35533905932737753 ) ) ;
#78 = EDGE_CURVE ( 'NONE', #116, #133, #141, .T. ) ;
#79 = CARTESIAN_POINT ( 'NONE',  ( -35.35533905932737753, -35.35533905932737753, -35.35533905932737753 ) ) ;
#80 = VECTOR ( 'NONE', #11, 1000.000000000000000 ) ;
#81 = LINE ( 'NONE', #64, #86 ) ;
#82 = FACE_OUTER_BOUND ( 'NONE', #134, .T. ) ;
#83 =( LENGTH_UNIT ( ) NAMED_UNIT ( * ) SI_UNIT ( .MILLI., .METRE. ) );
#84 = PRESENTATION_STYLE_ASSIGNMENT (( #18 ) ) ;
#85 = EDGE_CURVE ( 'NONE', #116, #20, #201, .T. ) ;
#86 = VECTOR ( 'NONE', #4, 1000.000000000000000 ) ;
#87 = ORIENTED_EDGE ( 'NONE', *, *, #85, .T. ) ;
#88 = ORIENTED_EDGE ( 'NONE', *, *, #126, .F. ) ;
#89 = ORIENTED_EDGE ( 'NONE', *, *, #17, .F. ) ;
#90 = PRODUCT_DEFINITION_SHAPE ( 'NONE', 'NONE',  #202 ) ;
#91 = EDGE_CURVE ( 'NONE', #46, #195, #186, .T. ) ;
#92 = DIRECTION ( 'NONE',  ( -1.962615573354718404E-16, 1.000000000000000000, 0.0000000000000000000 ) ) ;
#93 = ORIENTED_EDGE ( 'NONE', *, *, #17, .T. ) ;
#94 = AXIS2_PLACEMENT_3D ( 'NONE', #146, #6, #179 ) ;
#95 = PLANE ( 'NONE',  #22 ) ;
#96 = DIRECTION ( 'NONE',  ( 1.000000000000000000, 0.0000000000000000000, 0.0000000000000000000 ) ) ;
#97 = PLANE ( 'NONE',  #131 ) ;
#98 = LINE ( 'NONE', #162, #190 ) ;
#99 = VERTEX_POINT ( 'NONE', #71 ) ;
#100 = ADVANCED_FACE ( 'NONE', ( #197 ), #102, .T. ) ;
#101 = ADVANCED_BREP_SHAPE_REPRESENTATION ( 'Cube', ( #120, #94 ), #160 ) ;
#102 = PLANE ( 'NONE',  #68 ) ;
#103 = MECHANICAL_DESIGN_GEOMETRIC_PRESENTATION_REPRESENTATION (  '', ( #194 ), #175 ) ;
#104 = ORIENTED_EDGE ( 'NONE', *, *, #192, .T. ) ;
#105 = LINE ( 'NONE', #8, #176 ) ;
#106 = EDGE_LOOP ( 'NONE', ( #104, #40, #168, #59 ) ) ;
#107 = PRESENTATION_LAYER_ASSIGNMENT (  '', '', ( #196 ) ) ;
#108 = ORIENTED_EDGE ( 'NONE', *, *, #78, .T. ) ;
#109 = SURFACE_SIDE_STYLE ('',( #37 ) ) ;
#110 = CARTESIAN_POINT ( 'NONE',  ( 35.35533905932737042, 35.35533905932739174, -35.35533905932737753 ) ) ;
#111 = FILL_AREA_STYLE ('',( #16 ) ) ;
#112 = AXIS2_PLACEMENT_3D ( 'NONE', #29, #43, #169 ) ;
#113 = DIRECTION ( 'NONE',  ( 9.813077866773595716E-17, -1.000000000000000000, 0.0000000000000000000 ) ) ;
#114 = EDGE_CURVE ( 'NONE', #20, #10, #145, .T. ) ;
#115 =( LENGTH_UNIT ( ) NAMED_UNIT ( * ) SI_UNIT ( .MILLI., .METRE. ) );
#116 = VERTEX_POINT ( 'NONE', #110 ) ;
#117 = UNCERTAINTY_MEASURE_WITH_UNIT (LENGTH_MEASURE( 1.000000000000000082E-05 ), #83, 'distance_accuracy_value', 'NONE');
#118 = EDGE_CURVE ( 'NONE', #20, #99, #98, .T. ) ;
#119 = VERTEX_POINT ( 'NONE', #49 ) ;
#120 = MANIFOLD_SOLID_BREP ( 'Ready', #34 ) ;
#121 = DIRECTION ( 'NONE',  ( 0.0000000000000000000, 0.0000000000000000000, 1.000000000000000000 ) ) ;
#122 = CARTESIAN_POINT ( 'NONE',  ( 35.35533905932738463, -35.35533905932737753, -35.35533905932737753 ) ) ;
#123 = DIRECTION ( 'NONE',  ( -1.000000000000000000, -1.962615573354719143E-16, 0.0000000000000000000 ) ) ;
#124 = DIRECTION ( 'NONE',  ( -1.962615573354718404E-16, 1.000000000000000000, 0.0000000000000000000 ) ) ;
#125 =( NAMED_UNIT ( * ) SI_UNIT ( $, .STERADIAN. ) SOLID_ANGLE_UNIT ( ) );
#126 = EDGE_CURVE ( 'NONE', #99, #119, #81, .T. ) ;
#127 = DIRECTION ( 'NONE',  ( 1.000000000000000000, 0.0000000000000000000, -0.0000000000000000000 ) ) ;
#128 =( LENGTH_UNIT ( ) NAMED_UNIT ( * ) SI_UNIT ( .MILLI., .METRE. ) );
#129 = DIRECTION ( 'NONE',  ( 0.0000000000000000000, -0.0000000000000000000, -1.000000000000000000 ) ) ;
#130 = UNCERTAINTY_MEASURE_WITH_UNIT (LENGTH_MEASURE( 1.000000000000000082E-05 ), #115, 'distance_accuracy_value', 'NONE');
#131 = AXIS2_PLACEMENT_3D ( 'NONE', #52, #30, #129 ) ;
#132 = AXIS2_PLACEMENT_3D ( 'NONE', #77, #121, #76 ) ;
#133 = VERTEX_POINT ( 'NONE', #36 ) ;
#134 = EDGE_LOOP ( 'NONE', ( #93, #153, #154, #182 ) ) ;
#135 = MECHANICAL_DESIGN_GEOMETRIC_PRESENTATION_REPRESENTATION (  '', ( #196 ), #181 ) ;
#136 = PRODUCT_DEFINITION_FORMATION_WITH_SPECIFIED_SOURCE ( 'ANY', '', #7, .NOT_KNOWN. ) ;
#137 = ORIENTED_EDGE ( 'NONE', *, *, #114, .F. ) ;
#138 = ORIENTED_EDGE ( 'NONE', *, *, #14, .F. ) ;
#139 = CARTESIAN_POINT ( 'NONE',  ( 35.35533905932737042, 35.35533905932739174, 35.35533905932737753 ) ) ;
#140 = CARTESIAN_POINT ( 'NONE',  ( 35.35533905932737042, 35.35533905932739174, -35.35533905932737753 ) ) ;
#141 = LINE ( 'NONE', #140, #42 ) ;
#142 = DIRECTION ( 'NONE',  ( 0.0000000000000000000, 0.0000000000000000000, 1.000000000000000000 ) ) ;
#143 = VECTOR ( 'NONE', #92, 1000.000000000000000 ) ;
#144 = CARTESIAN_POINT ( 'NONE',  ( 35.35533905932738463, -35.35533905932737753, -35.35533905932737753 ) ) ;
#145 = LINE ( 'NONE', #189, #80 ) ;
#146 = CARTESIAN_POINT ( 'NONE',  ( 0.0000000000000000000, 0.0000000000000000000, 0.0000000000000000000 ) ) ;
#147 = PRODUCT_DEFINITION_CONTEXT ( 'detailed design', #72, 'design' ) ;
#148 = FILL_AREA_STYLE_COLOUR ( '', #21 ) ;
#149 = EDGE_CURVE ( 'NONE', #99, #46, #62, .T. ) ;
#150 = COLOUR_RGB ( '',0.9960784313725490335, 0.8705882352941176627, 0.7607843137254901578 ) ;
#151 = ORIENTED_EDGE ( 'NONE', *, *, #118, .T. ) ;
#152 = PRODUCT_RELATED_PRODUCT_CATEGORY ( 'part', '', ( #7 ) ) ;
#153 = ORIENTED_EDGE ( 'NONE', *, *, #14, .T. ) ;
#154 = ORIENTED_EDGE ( 'NONE', *, *, #31, .T. ) ;
#155 = EDGE_LOOP ( 'NONE', ( #70, #138, #193, #87 ) ) ;
#156 = FACE_OUTER_BOUND ( 'NONE', #38, .T. ) ;
#157 = ORIENTED_EDGE ( 'NONE', *, *, #118, .F. ) ;
#158 = EDGE_LOOP ( 'NONE', ( #108, #89, #180, #23 ) ) ;
#159 = SURFACE_STYLE_USAGE ( .BOTH. , #109 ) ;
#160 =( GEOMETRIC_REPRESENTATION_CONTEXT ( 3 ) GLOBAL_UNCERTAINTY_ASSIGNED_CONTEXT ( ( #130 ) ) GLOBAL_UNIT_ASSIGNED_CONTEXT ( ( #115, #161, #125 ) ) REPRESENTATION_CONTEXT ( 'NONE', 'WORKASPACE' ) );
#161 =( NAMED_UNIT ( * ) PLANE_ANGLE_UNIT ( ) SI_UNIT ( $, .RADIAN. ) );
#162 = CARTESIAN_POINT ( 'NONE',  ( -35.35533905932738463, 35.35533905932737753, -35.35533905932737753 ) ) ;
#163 = APPLICATION_PROTOCOL_DEFINITION ( 'draft international standard', 'automotive_design', 1998, #72 ) ;
#164 = SURFACE_SIDE_STYLE ('',( #66 ) ) ;
#165 = EDGE_LOOP ( 'NONE', ( #183, #185, #137, #151 ) ) ;
#166 = ADVANCED_FACE ( 'NONE', ( #82 ), #47, .T. ) ;
#167 = CARTESIAN_POINT ( 'NONE',  ( 35.35533905932737042, 35.35533905932739174, -35.35533905932737753 ) ) ;
#168 = ORIENTED_EDGE ( 'NONE', *, *, #149, .F. ) ;
#169 = DIRECTION ( 'NONE',  ( 9.813077866773595716E-17, -1.000000000000000000, 0.0000000000000000000 ) ) ;
#170 = LINE ( 'NONE', #139, #54 ) ;
#171 = ADVANCED_FACE ( 'NONE', ( #15 ), #97, .T. ) ;
#172 = DIRECTION ( 'NONE',  ( 9.813077866773595716E-17, -1.000000000000000000, 0.0000000000000000000 ) ) ;
#173 = CARTESIAN_POINT ( 'NONE',  ( 0.0000000000000000000, 0.0000000000000000000, 35.35533905932737753 ) ) ;
#174 = LINE ( 'NONE', #144, #50 ) ;
#175 =( GEOMETRIC_REPRESENTATION_CONTEXT ( 3 ) GLOBAL_UNCERTAINTY_ASSIGNED_CONTEXT ( ( #69 ) ) GLOBAL_UNIT_ASSIGNED_CONTEXT ( ( #128, #12, #177 ) ) REPRESENTATION_CONTEXT ( 'NONE', 'WORKASPACE' ) );
#176 = VECTOR ( 'NONE', #172, 1000.000000000000000 ) ;
#177 =( NAMED_UNIT ( * ) SI_UNIT ( $, .STERADIAN. ) SOLID_ANGLE_UNIT ( ) );
#178 = DIRECTION ( 'NONE',  ( 0.0000000000000000000, 0.0000000000000000000, 1.000000000000000000 ) ) ;
#179 = DIRECTION ( 'NONE',  ( 1.000000000000000000, 0.0000000000000000000, 0.0000000000000000000 ) ) ;
#180 = ORIENTED_EDGE ( 'NONE', *, *, #192, .F. ) ;
#181 =( GEOMETRIC_REPRESENTATION_CONTEXT ( 3 ) GLOBAL_UNCERTAINTY_ASSIGNED_CONTEXT ( ( #117 ) ) GLOBAL_UNIT_ASSIGNED_CONTEXT ( ( #83, #191, #65 ) ) REPRESENTATION_CONTEXT ( 'NONE', 'WORKASPACE' ) );
#182 = ORIENTED_EDGE ( 'NONE', *, *, #91, .T. ) ;
#183 = ORIENTED_EDGE ( 'NONE', *, *, #149, .T. ) ;
#184 = DIRECTION ( 'NONE',  ( -1.000000000000000000, -1.962615573354719143E-16, 0.0000000000000000000 ) ) ;
#185 = ORIENTED_EDGE ( 'NONE', *, *, #31, .F. ) ;
#186 = LINE ( 'NONE', #45, #13 ) ;
#187 = FACE_OUTER_BOUND ( 'NONE', #158, .T. ) ;
#188 = APPLICATION_PROTOCOL_DEFINITION ( 'draft international standard', 'automotive_design', 1998, #48 ) ;
#189 = CARTESIAN_POINT ( 'NONE',  ( -35.35533905932738463, 35.35533905932737753, -35.35533905932737753 ) ) ;
#190 = VECTOR ( 'NONE', #113, 1000.000000000000000 ) ;
#191 =( NAMED_UNIT ( * ) PLANE_ANGLE_UNIT ( ) SI_UNIT ( $, .RADIAN. ) );
#192 = EDGE_CURVE ( 'NONE', #119, #195, #174, .T. ) ;
#193 = ORIENTED_EDGE ( 'NONE', *, *, #78, .F. ) ;
#194 = STYLED_ITEM ( 'NONE', ( #3 ), #120 ) ;
#195 = VERTEX_POINT ( 'NONE', #2 ) ;
#196 = STYLED_ITEM ( 'NONE', ( #84 ), #101 ) ;
#197 = FACE_OUTER_BOUND ( 'NONE', #155, .T. ) ;
#198 = FACE_OUTER_BOUND ( 'NONE', #165, .T. ) ;
#199 = AXIS2_PLACEMENT_3D ( 'NONE', #173, #178, #127 ) ;
#200 = CARTESIAN_POINT ( 'NONE',  ( -35.35533905932737753, -35.35533905932737753, 35.35533905932737753 ) ) ;
#201 = LINE ( 'NONE', #61, #75 ) ;
#202 = PRODUCT_DEFINITION ( 'UNKNOWN', '', #136, #147 ) ;
ENDSEC;
END-ISO-10303-21;
