ISO-10303-21;
HEADER;
FILE_DESCRIPTION (( 'STEP AP214' ),
    '1' );
FILE_NAME ('Dodecahedron.STEP',
    '2020-02-06T18:30:38',
    ( '' ),
    ( '' ),
    'SwSTEP 2.0',
    'SolidWorks 2019',
    '' );
FILE_SCHEMA (( 'AUTOMOTIVE_DESIGN' ));
ENDSEC;

DATA;
#1 = ORIENTED_EDGE ( 'NONE', *, *, #313, .F. ) ;
#2 = FACE_OUTER_BOUND ( 'NONE', #182, .T. ) ;
#3 = CARTESIAN_POINT ( 'NONE',  ( 46.70861794813568935, 15.17654995516765126, 9.379623704253999605 ) ) ;
#4 = PRODUCT_DEFINITION_FORMATION_WITH_SPECIFIED_SOURCE ( 'ANY', '', #383, .NOT_KNOWN. ) ;
#5 = UNCERTAINTY_MEASURE_WITH_UNIT (LENGTH_MEASURE( 1.000000000000000082E-05 ), #357, 'distance_accuracy_value', 'NONE');
#6 = CARTESIAN_POINT ( 'NONE',  ( -20.88872897341955337, -28.75086890063733591, -17.76901418668625610 ) ) ;
#7 = VECTOR ( 'NONE', #276, 999.9999999999998863 ) ;
#8 = FACE_OUTER_BOUND ( 'NONE', #393, .T. ) ;
#9 = VECTOR ( 'NONE', #203, 1000.000000000000227 ) ;
#10 = CARTESIAN_POINT ( 'NONE',  ( 46.70861794813563250, 15.17654995516780225, 9.379623704254044014 ) ) ;
#11 = VECTOR ( 'NONE', #181, 1000.000000000000114 ) ;
#12 = PRESENTATION_STYLE_ASSIGNMENT (( #238 ) ) ;
#13 = CARTESIAN_POINT ( 'NONE',  ( 46.70861794813599488, -15.17654995516684124, -9.379623704253727823 ) ) ;
#14 = ORIENTED_EDGE ( 'NONE', *, *, #66, .F. ) ;
#15 = PRESENTATION_STYLE_ASSIGNMENT (( #202 ) ) ;
#16 = EDGE_CURVE ( 'NONE', #278, #289, #239, .T. ) ;
#17 = SURFACE_STYLE_FILL_AREA ( #291 ) ;
#18 = VERTEX_POINT ( 'NONE', #324 ) ;
#19 = SHAPE_DEFINITION_REPRESENTATION ( #198, #233 ) ;
#20 = EDGE_CURVE ( 'NONE', #139, #272, #191, .T. ) ;
#21 = LINE ( 'NONE', #105, #380 ) ;
#22 = VERTEX_POINT ( 'NONE', #374 ) ;
#23 = ADVANCED_FACE ( 'NONE', ( #2 ), #74, .F. ) ;
#24 = CARTESIAN_POINT ( 'NONE',  ( 20.88872897341998680, -28.75086890063719025, -17.76901418668596477 ) ) ;
#25 = ORIENTED_EDGE ( 'NONE', *, *, #161, .F. ) ;
#26 = APPLICATION_PROTOCOL_DEFINITION ( 'draft international standard', 'automotive_design', 1998, #387 ) ;
#27 = ORIENTED_EDGE ( 'NONE', *, *, #90, .T. ) ;
#28 = CARTESIAN_POINT ( 'NONE',  ( 1.183547438722814217E-14, 30.35309991033431132, 39.73272361458838731 ) ) ;
#29 = PLANE ( 'NONE',  #146 ) ;
#30 = ORIENTED_EDGE ( 'NONE', *, *, #307, .T. ) ;
#31 = DIRECTION ( 'NONE',  ( -9.908740494779522123E-15, 0.8944271909999165215, -0.4472135954999568175 ) ) ;
#32 = VECTOR ( 'NONE', #148, 1000.000000000000000 ) ;
#33 = CARTESIAN_POINT ( 'NONE',  ( -28.86751345948136915, -39.73272361458836599, 9.379623704253825522 ) ) ;
#34 = EDGE_CURVE ( 'NONE', #278, #55, #253, .T. ) ;
#35 = EDGE_LOOP ( 'NONE', ( #147, #363, #321, #30, #263 ) ) ;
#36 = FACE_OUTER_BOUND ( 'NONE', #347, .T. ) ;
#37 = DIRECTION ( 'NONE',  ( 0.8090169943749518922, -0.2628655560595674068, -0.5257311121191263759 ) ) ;
#38 = VECTOR ( 'NONE', #118, 1000.000000000000114 ) ;
#39 = DIRECTION ( 'NONE',  ( 0.8506508083520383234, 0.2763932022500280583, -0.4472135954999568175 ) ) ;
#40 = DIRECTION ( 'NONE',  ( -1.000000000000000000, 0.0000000000000000000, -0.0000000000000000000 ) ) ;
#41 = ADVANCED_FACE ( 'NONE', ( #36 ), #305, .F. ) ;
#42 = VECTOR ( 'NONE', #125, 1000.000000000000000 ) ;
#43 = CARTESIAN_POINT ( 'NONE',  ( 28.86751345948124836, 9.379623704254301586, 39.73272361458836599 ) ) ;
#44 = PRESENTATION_LAYER_ASSIGNMENT (  '', '', ( #169 ) ) ;
#45 = LINE ( 'NONE', #54, #394 ) ;
#46 = ORIENTED_EDGE ( 'NONE', *, *, #77, .F. ) ;
#47 = CARTESIAN_POINT ( 'NONE',  ( -17.84110448865442677, -24.55617365942127606, 39.73272361458836599 ) ) ;
#48 = ADVANCED_FACE ( 'NONE', ( #370 ), #309, .F. ) ;
#49 = ORIENTED_EDGE ( 'NONE', *, *, #173, .T. ) ;
#50 = VECTOR ( 'NONE', #159, 1000.000000000000227 ) ;
#51 = FILL_AREA_STYLE_COLOUR ( '', #130 ) ;
#52 = ORIENTED_EDGE ( 'NONE', *, *, #365, .T. ) ;
#53 = FACE_OUTER_BOUND ( 'NONE', #133, .T. ) ;
#54 = CARTESIAN_POINT ( 'NONE',  ( -28.86751345948101388, -39.73272361458857915, 9.379623704254044014 ) ) ;
#55 = VERTEX_POINT ( 'NONE', #189 ) ;
#56 = ORIENTED_EDGE ( 'NONE', *, *, #348, .T. ) ;
#57 =( NAMED_UNIT ( * ) SI_UNIT ( $, .STERADIAN. ) SOLID_ANGLE_UNIT ( ) );
#58 = EDGE_CURVE ( 'NONE', #255, #328, #227, .T. ) ;
#59 = ORIENTED_EDGE ( 'NONE', *, *, #180, .T. ) ;
#60 = DIRECTION ( 'NONE',  ( 1.000000000000000000, 0.0000000000000000000, 0.0000000000000000000 ) ) ;
#61 = LINE ( 'NONE', #28, #128 ) ;
#62 = ORIENTED_EDGE ( 'NONE', *, *, #115, .T. ) ;
#63 = ORIENTED_EDGE ( 'NONE', *, *, #282, .F. ) ;
#64 = CARTESIAN_POINT ( 'NONE',  ( -28.86751345948101743, -9.379623704254173688, -39.73272361458856494 ) ) ;
#65 = DIRECTION ( 'NONE',  ( -0.8506508083520443186, 0.2763932022500096286, -0.4472135954999568175 ) ) ;
#66 = EDGE_CURVE ( 'NONE', #225, #221, #153, .T. ) ;
#67 = ORIENTED_EDGE ( 'NONE', *, *, #98, .T. ) ;
#68 = VECTOR ( 'NONE', #208, 1000.000000000000114 ) ;
#69 = CARTESIAN_POINT ( 'NONE',  ( 0.0000000000000000000, 0.0000000000000000000, 39.73272361458838731 ) ) ;
#70 = CARTESIAN_POINT ( 'NONE',  ( -5.330071657815858830E-14, 30.35309991033436106, 39.73272361458835178 ) ) ;
#71 = PRODUCT_DEFINITION ( 'UNKNOWN', '', #4, #311 ) ;
#72 = DIRECTION ( 'NONE',  ( 0.4999999999999968359, 0.1624598481164626629, -0.8506508083520400998 ) ) ;
#73 = VECTOR ( 'NONE', #80, 1000.000000000000114 ) ;
#74 = PLANE ( 'NONE',  #158 ) ;
#75 = PLANE ( 'NONE',  #319 ) ;
#76 = VECTOR ( 'NONE', #157, 1000.000000000000114 ) ;
#77 = EDGE_CURVE ( 'NONE', #55, #22, #284, .T. ) ;
#78 = DIRECTION ( 'NONE',  ( -1.000000000000000000, -6.982962677686266711E-15, -6.982962677686266711E-15 ) ) ;
#79 = FILL_AREA_STYLE_COLOUR ( '', #327 ) ;
#80 = DIRECTION ( 'NONE',  ( 0.8090169943749476733, 0.5877852522924728040, 0.0000000000000000000 ) ) ;
#81 = EDGE_LOOP ( 'NONE', ( #89, #335, #353, #274, #389 ) ) ;
#82 = DIRECTION ( 'NONE',  ( 0.3090169943749543902, -0.4253254041760147763, -0.8506508083520400998 ) ) ;
#83 = CARTESIAN_POINT ( 'NONE',  ( -46.70861794813592383, 15.17654995516694427, 9.379623704254044014 ) ) ;
#84 = ORIENTED_EDGE ( 'NONE', *, *, #115, .F. ) ;
#85 = MECHANICAL_DESIGN_GEOMETRIC_PRESENTATION_REPRESENTATION (  '', ( #169 ), #343 ) ;
#86 = CARTESIAN_POINT ( 'NONE',  ( -28.86751345948113467, -39.73272361458850810, 9.379623704253972960 ) ) ;
#87 = VERTEX_POINT ( 'NONE', #195 ) ;
#88 = CARTESIAN_POINT ( 'NONE',  ( 33.79867346077796242, -10.98185471395065882, 17.76901418668611043 ) ) ;
#89 = ORIENTED_EDGE ( 'NONE', *, *, #384, .F. ) ;
#90 = EDGE_CURVE ( 'NONE', #221, #328, #99, .T. ) ;
#91 = CARTESIAN_POINT ( 'NONE',  ( 28.86751345948163916, -9.379623704253781113, -39.73272361458818125 ) ) ;
#92 = VERTEX_POINT ( 'NONE', #121 ) ;
#93 = DIRECTION ( 'NONE',  ( -0.8090169943749465631, -0.2628655560595617446, -0.5257311121191374781 ) ) ;
#94 = DIRECTION ( 'NONE',  ( 0.8090169943749471182, -0.5877852522924735812, 0.0000000000000000000 ) ) ;
#95 = FACE_OUTER_BOUND ( 'NONE', #35, .T. ) ;
#96 = ADVANCED_FACE ( 'NONE', ( #8 ), #281, .F. ) ;
#97 = CARTESIAN_POINT ( 'NONE',  ( -46.70861794813599488, 15.17654995516673644, 9.379623704253905458 ) ) ;
#98 = EDGE_CURVE ( 'NONE', #87, #296, #372, .T. ) ;
#99 = LINE ( 'NONE', #10, #179 ) ;
#100 = VECTOR ( 'NONE', #344, 1000.000000000000000 ) ;
#101 = ADVANCED_FACE ( 'NONE', ( #95 ), #75, .F. ) ;
#102 = AXIS2_PLACEMENT_3D ( 'NONE', #117, #301, #369 ) ;
#103 = LINE ( 'NONE', #174, #73 ) ;
#104 = VECTOR ( 'NONE', #112, 1000.000000000000000 ) ;
#105 = CARTESIAN_POINT ( 'NONE',  ( -3.261280134836397337E-13, 49.11234731884237448, 9.379623704253905458 ) ) ;
#106 = ORIENTED_EDGE ( 'NONE', *, *, #144, .T. ) ;
#107 = CARTESIAN_POINT ( 'NONE',  ( -46.70861794813571066, -15.17654995516749317, -9.379623704254143490 ) ) ;
#108 = ORIENTED_EDGE ( 'NONE', *, *, #218, .F. ) ;
#109 = DIRECTION ( 'NONE',  ( -0.3090169943749479509, -0.9510565162951533091, 0.0000000000000000000 ) ) ;
#110 = ORIENTED_EDGE ( 'NONE', *, *, #16, .T. ) ;
#111 = ORIENTED_EDGE ( 'NONE', *, *, #204, .F. ) ;
#112 = DIRECTION ( 'NONE',  ( -1.000000000000000000, -7.469121894196642813E-15, -6.982962677686266711E-15 ) ) ;
#113 = EDGE_LOOP ( 'NONE', ( #49, #215, #1, #168, #397 ) ) ;
#114 = LINE ( 'NONE', #303, #32 ) ;
#115 = EDGE_CURVE ( 'NONE', #304, #278, #340, .T. ) ;
#116 = DIRECTION ( 'NONE',  ( 0.8090169943749464521, 0.2628655560595731244, 0.5257311121191321490 ) ) ;
#117 = CARTESIAN_POINT ( 'NONE',  ( 20.88872897341965995, 28.75086890063733591, 17.76901418668611043 ) ) ;
#118 = DIRECTION ( 'NONE',  ( 0.8090169943749430104, 0.5877852522924792433, 5.649335477334175951E-15 ) ) ;
#119 = ORIENTED_EDGE ( 'NONE', *, *, #211, .F. ) ;
#120 = PRESENTATION_LAYER_ASSIGNMENT (  '', '', ( #295 ) ) ;
#121 = CARTESIAN_POINT ( 'NONE',  ( 28.86751345948166758, -9.379623704253832628, -39.73272361458814572 ) ) ;
#122 = CARTESIAN_POINT ( 'NONE',  ( 28.86751345948128034, 9.379623704254086647, 39.73272361458838020 ) ) ;
#123 = DIRECTION ( 'NONE',  ( 0.0000000000000000000, 0.0000000000000000000, -1.000000000000000000 ) ) ;
#124 = VECTOR ( 'NONE', #82, 1000.000000000000114 ) ;
#125 = DIRECTION ( 'NONE',  ( 0.8090169943749467851, -0.2628655560595644647, -0.5257311121191359238 ) ) ;
#126 = DIRECTION ( 'NONE',  ( -8.659739592076221015E-15, 0.8506508083520408769, 0.5257311121191321490 ) ) ;
#127 = ADVANCED_FACE ( 'NONE', ( #150 ), #399, .F. ) ;
#128 = VECTOR ( 'NONE', #94, 1000.000000000000114 ) ;
#129 = ADVANCED_FACE ( 'NONE', ( #151 ), #143, .F. ) ;
#130 = COLOUR_RGB ( '',1.000000000000000000, 0.7529411764705882248, 0.7529411764705882248 ) ;
#131 = DIRECTION ( 'NONE',  ( -6.982962677686266711E-15, -4.876176775795935793E-29, 1.000000000000000000 ) ) ;
#132 = DIRECTION ( 'NONE',  ( -0.8506508083520454289, -0.2763932022500155683, 0.4472135954999508778 ) ) ;
#133 = EDGE_LOOP ( 'NONE', ( #25, #251, #368, #247, #356 ) ) ;
#134 = SURFACE_SIDE_STYLE ('',( #17 ) ) ;
#135 = VERTEX_POINT ( 'NONE', #299 ) ;
#136 = FILL_AREA_STYLE ('',( #79 ) ) ;
#137 = MECHANICAL_DESIGN_GEOMETRIC_PRESENTATION_REPRESENTATION (  '', ( #295 ), #156 ) ;
#138 = DIRECTION ( 'NONE',  ( -0.3090169943749417336, -0.4253254041760240467, -0.8506508083520399888 ) ) ;
#139 = VERTEX_POINT ( 'NONE', #339 ) ;
#140 =( NAMED_UNIT ( * ) SI_UNIT ( $, .STERADIAN. ) SOLID_ANGLE_UNIT ( ) );
#141 = CARTESIAN_POINT ( 'NONE',  ( -28.86751345948146508, 39.73272361458823099, -9.379623704254100858 ) ) ;
#142 = VERTEX_POINT ( 'NONE', #70 ) ;
#143 = PLANE ( 'NONE',  #214 ) ;
#144 = EDGE_CURVE ( 'NONE', #22, #300, #186, .T. ) ;
#145 = SURFACE_STYLE_FILL_AREA ( #136 ) ;
#146 = AXIS2_PLACEMENT_3D ( 'NONE', #322, #392, #325 ) ;
#147 = ORIENTED_EDGE ( 'NONE', *, *, #161, .T. ) ;
#148 = DIRECTION ( 'NONE',  ( -0.8090169943749431214, -0.2628655560595754004, -0.5257311121191359238 ) ) ;
#149 = VECTOR ( 'NONE', #320, 1000.000000000000114 ) ;
#150 = FACE_OUTER_BOUND ( 'NONE', #81, .T. ) ;
#151 = FACE_OUTER_BOUND ( 'NONE', #113, .T. ) ;
#152 = ORIENTED_EDGE ( 'NONE', *, *, #162, .T. ) ;
#153 = LINE ( 'NONE', #43, #349 ) ;
#154 = DIRECTION ( 'NONE',  ( 0.3090169943749490611, 0.9510565162951530871, -2.291253644529831743E-16 ) ) ;
#155 = APPLICATION_CONTEXT ( 'automotive_design' ) ;
#156 =( GEOMETRIC_REPRESENTATION_CONTEXT ( 3 ) GLOBAL_UNCERTAINTY_ASSIGNED_CONTEXT ( ( #5 ) ) GLOBAL_UNIT_ASSIGNED_CONTEXT ( ( #357, #264, #140 ) ) REPRESENTATION_CONTEXT ( 'NONE', 'WORKASPACE' ) );
#157 = DIRECTION ( 'NONE',  ( 0.5000000000000025535, 0.6881909602355886779, -0.5257311121191287073 ) ) ;
#158 = AXIS2_PLACEMENT_3D ( 'NONE', #69, #123, #40 ) ;
#159 = DIRECTION ( 'NONE',  ( 0.3090169943749556669, -0.9510565162951508666, 2.386979502944085773E-15 ) ) ;
#160 = CARTESIAN_POINT ( 'NONE',  ( -46.70861794813568935, -15.17654995516760508, -9.379623704254026251 ) ) ;
#161 = EDGE_CURVE ( 'NONE', #289, #139, #306, .T. ) ;
#162 = EDGE_CURVE ( 'NONE', #92, #18, #398, .T. ) ;
#163 = EDGE_CURVE ( 'NONE', #331, #135, #248, .T. ) ;
#164 = AXIS2_PLACEMENT_3D ( 'NONE', #351, #131, #78 ) ;
#165 = CARTESIAN_POINT ( 'NONE',  ( 46.70861794813595935, -15.17654995516702954, -9.379623704253578609 ) ) ;
#166 = LINE ( 'NONE', #381, #124 ) ;
#167 = AXIS2_PLACEMENT_3D ( 'NONE', #259, #39, #193 ) ;
#168 = ORIENTED_EDGE ( 'NONE', *, *, #144, .F. ) ;
#169 = STYLED_ITEM ( 'NONE', ( #12 ), #377 ) ;
#170 = FACE_OUTER_BOUND ( 'NONE', #333, .T. ) ;
#171 = ORIENTED_EDGE ( 'NONE', *, *, #313, .T. ) ;
#172 = DIRECTION ( 'NONE',  ( 0.5000000000000036637, -0.6881909602355851252, 0.5257311121191321490 ) ) ;
#173 = EDGE_CURVE ( 'NONE', #337, #87, #275, .T. ) ;
#174 = CARTESIAN_POINT ( 'NONE',  ( -28.86751345948128744, 9.379623704254010264, 39.73272361458838731 ) ) ;
#175 = ORIENTED_EDGE ( 'NONE', *, *, #258, .F. ) ;
#176 = SURFACE_SIDE_STYLE ('',( #145 ) ) ;
#177 =( LENGTH_UNIT ( ) NAMED_UNIT ( * ) SI_UNIT ( .MILLI., .METRE. ) );
#178 = ORIENTED_EDGE ( 'NONE', *, *, #58, .F. ) ;
#179 = VECTOR ( 'NONE', #279, 1000.000000000000114 ) ;
#180 = EDGE_CURVE ( 'NONE', #255, #87, #114, .T. ) ;
#181 = DIRECTION ( 'NONE',  ( -0.8090169943749480064, 0.5877852522924722489, -8.036314980278239636E-15 ) ) ;
#182 = EDGE_LOOP ( 'NONE', ( #106, #382, #108, #175, #386 ) ) ;
#183 = AXIS2_PLACEMENT_3D ( 'NONE', #240, #132, #288 ) ;
#184 = ORIENTED_EDGE ( 'NONE', *, *, #282, .T. ) ;
#185 = LINE ( 'NONE', #280, #231 ) ;
#186 = LINE ( 'NONE', #273, #310 ) ;
#187 = ORIENTED_EDGE ( 'NONE', *, *, #163, .T. ) ;
#188 = ORIENTED_EDGE ( 'NONE', *, *, #196, .F. ) ;
#189 = CARTESIAN_POINT ( 'NONE',  ( -28.86751345948143666, 9.379623704253859273, 39.73272361458831625 ) ) ;
#190 = CARTESIAN_POINT ( 'NONE',  ( 3.920475055707584033E-13, -35.53802837337233456, 17.76901418668611043 ) ) ;
#191 = LINE ( 'NONE', #222, #42 ) ;
#192 = UNCERTAINTY_MEASURE_WITH_UNIT (LENGTH_MEASURE( 1.000000000000000082E-05 ), #243, 'distance_accuracy_value', 'NONE');
#193 = DIRECTION ( 'NONE',  ( -8.937295348232511728E-15, 0.8506508083520409880, 0.5257311121191318160 ) ) ;
#194 = VECTOR ( 'NONE', #109, 1000.000000000000114 ) ;
#195 = CARTESIAN_POINT ( 'NONE',  ( 2.595768615752286823E-13, -49.11234731884236027, -9.379623704253944538 ) ) ;
#196 = EDGE_CURVE ( 'NONE', #296, #92, #277, .T. ) ;
#197 = PRODUCT_RELATED_PRODUCT_CATEGORY ( 'part', '', ( #383 ) ) ;
#198 = PRODUCT_DEFINITION_SHAPE ( 'NONE', 'NONE',  #71 ) ;
#199 =( GEOMETRIC_REPRESENTATION_CONTEXT ( 3 ) GLOBAL_UNCERTAINTY_ASSIGNED_CONTEXT ( ( #192 ) ) GLOBAL_UNIT_ASSIGNED_CONTEXT ( ( #243, #297, #57 ) ) REPRESENTATION_CONTEXT ( 'NONE', 'WORKASPACE' ) );
#200 = ORIENTED_EDGE ( 'NONE', *, *, #34, .F. ) ;
#201 = LINE ( 'NONE', #47, #228 ) ;
#202 = SURFACE_STYLE_USAGE ( .BOTH. , #176 ) ;
#203 = DIRECTION ( 'NONE',  ( -0.4999999999999920619, 0.1624598481164512276, -0.8506508083520449848 ) ) ;
#204 = EDGE_CURVE ( 'NONE', #296, #331, #336, .T. ) ;
#205 = VECTOR ( 'NONE', #37, 1000.000000000000114 ) ;
#206 = ORIENTED_EDGE ( 'NONE', *, *, #307, .F. ) ;
#207 = LINE ( 'NONE', #362, #194 ) ;
#208 = DIRECTION ( 'NONE',  ( 0.4999999999999955591, 0.6881909602355882338, -0.5257311121191357017 ) ) ;
#209 = ORIENTED_EDGE ( 'NONE', *, *, #162, .F. ) ;
#210 = CARTESIAN_POINT ( 'NONE',  ( 0.0000000000000000000, 0.0000000000000000000, 0.0000000000000000000 ) ) ;
#211 = EDGE_CURVE ( 'NONE', #135, #289, #185, .T. ) ;
#212 = FACE_OUTER_BOUND ( 'NONE', #364, .T. ) ;
#213 = ORIENTED_EDGE ( 'NONE', *, *, #204, .T. ) ;
#214 = AXIS2_PLACEMENT_3D ( 'NONE', #190, #31, #223 ) ;
#215 = ORIENTED_EDGE ( 'NONE', *, *, #180, .F. ) ;
#216 = ORIENTED_EDGE ( 'NONE', *, *, #348, .F. ) ;
#217 = DIRECTION ( 'NONE',  ( -0.4999999999999895084, -0.6881909602355957833, 0.5257311121191318160 ) ) ;
#218 = EDGE_CURVE ( 'NONE', #142, #225, #61, .T. ) ;
#219 = ORIENTED_EDGE ( 'NONE', *, *, #196, .T. ) ;
#220 = CARTESIAN_POINT ( 'NONE',  ( -28.86751345948117375, -9.379623704253985395, -39.73272361458847257 ) ) ;
#221 = VERTEX_POINT ( 'NONE', #3 ) ;
#222 = CARTESIAN_POINT ( 'NONE',  ( -1.040834085586084257E-13, 49.11234731884235316, 9.379623704254044014 ) ) ;
#223 = DIRECTION ( 'NONE',  ( -0.8090169943749521142, 0.2628655560595560825, 0.5257311121191318160 ) ) ;
#224 = CLOSED_SHELL ( 'NONE', ( #41, #48, #129, #23, #378, #96, #261, #252, #229, #127, #101, #314 ) ) ;
#225 = VERTEX_POINT ( 'NONE', #122 ) ;
#226 = CARTESIAN_POINT ( 'NONE',  ( 2.679671426858507063E-13, 35.53802837337233456, -17.76901418668611043 ) ) ;
#227 = LINE ( 'NONE', #256, #76 ) ;
#228 = VECTOR ( 'NONE', #138, 999.9999999999998863 ) ;
#229 = ADVANCED_FACE ( 'NONE', ( #212 ), #367, .F. ) ;
#230 = DIRECTION ( 'NONE',  ( 0.8090169943749520032, -0.2628655560595676843, -0.5257311121191260428 ) ) ;
#231 = VECTOR ( 'NONE', #371, 999.9999999999998863 ) ;
#232 = AXIS2_PLACEMENT_3D ( 'NONE', #341, #257, #338 ) ;
#233 = ADVANCED_BREP_SHAPE_REPRESENTATION ( 'Dodecahedron', ( #377, #266 ), #199 ) ;
#234 = DIRECTION ( 'NONE',  ( 0.5000000000000028866, 0.6881909602355886779, -0.5257311121191283743 ) ) ;
#235 = CARTESIAN_POINT ( 'NONE',  ( 28.86751345948116665, 39.73272361458844415, -9.379623704254026251 ) ) ;
#236 = DIRECTION ( 'NONE',  ( 3.941291737419304930E-15, -0.5257311121191312608, 0.8506508083520414321 ) ) ;
#237 = EDGE_LOOP ( 'NONE', ( #178, #59, #67, #219, #216 ) ) ;
#238 = SURFACE_STYLE_USAGE ( .BOTH. , #134 ) ;
#239 = LINE ( 'NONE', #83, #68 ) ;
#240 = CARTESIAN_POINT ( 'NONE',  ( 33.79867346077801216, 10.98185471395089330, -17.76901418668587596 ) ) ;
#241 = ORIENTED_EDGE ( 'NONE', *, *, #90, .F. ) ;
#242 = EDGE_CURVE ( 'NONE', #331, #304, #334, .T. ) ;
#243 =( LENGTH_UNIT ( ) NAMED_UNIT ( * ) SI_UNIT ( .MILLI., .METRE. ) );
#244 = DIRECTION ( 'NONE',  ( -0.5257311121191404757, 0.7236067977499770487, 0.4472135954999531537 ) ) ;
#245 = AXIS2_PLACEMENT_3D ( 'NONE', #24, #244, #234 ) ;
#246 = ORIENTED_EDGE ( 'NONE', *, *, #242, .T. ) ;
#247 = ORIENTED_EDGE ( 'NONE', *, *, #258, .T. ) ;
#248 = LINE ( 'NONE', #220, #345 ) ;
#249 = EDGE_LOOP ( 'NONE', ( #292, #184, #268, #111, #317 ) ) ;
#250 = DIRECTION ( 'NONE',  ( 1.000000000000000000, 1.182387521225791400E-14, 2.386979502944086167E-15 ) ) ;
#251 = ORIENTED_EDGE ( 'NONE', *, *, #16, .F. ) ;
#252 = ADVANCED_FACE ( 'NONE', ( #315 ), #262, .F. ) ;
#253 = LINE ( 'NONE', #97, #7 ) ;
#254 = CARTESIAN_POINT ( 'NONE',  ( 3.037912779799232963E-13, -30.35309991033446764, -39.73272361458827362 ) ) ;
#255 = VERTEX_POINT ( 'NONE', #271 ) ;
#256 = CARTESIAN_POINT ( 'NONE',  ( 28.86751345948137626, -39.73272361458824520, 9.379623704254228755 ) ) ;
#257 = DIRECTION ( 'NONE',  ( 0.8506508083520372132, -0.2763932022500220076, 0.4472135954999627572 ) ) ;
#258 = EDGE_CURVE ( 'NONE', #55, #142, #103, .T. ) ;
#259 = CARTESIAN_POINT ( 'NONE',  ( -33.79867346077772794, -10.98185471395138890, 17.76901418668611043 ) ) ;
#260 = CARTESIAN_POINT ( 'NONE',  ( 17.84110448865463638, -24.55617365942109842, 39.73272361458837310 ) ) ;
#261 = ADVANCED_FACE ( 'NONE', ( #170 ), #316, .F. ) ;
#262 = PLANE ( 'NONE',  #245 ) ;
#263 = ORIENTED_EDGE ( 'NONE', *, *, #211, .T. ) ;
#264 =( NAMED_UNIT ( * ) PLANE_ANGLE_UNIT ( ) SI_UNIT ( $, .RADIAN. ) );
#265 = CARTESIAN_POINT ( 'NONE',  ( -28.86751345948107073, -9.379623704254109740, -39.73272361458852941 ) ) ;
#266 = AXIS2_PLACEMENT_3D ( 'NONE', #210, #329, #60 ) ;
#267 =( NAMED_UNIT ( * ) PLANE_ANGLE_UNIT ( ) SI_UNIT ( $, .RADIAN. ) );
#268 = ORIENTED_EDGE ( 'NONE', *, *, #242, .F. ) ;
#269 = CARTESIAN_POINT ( 'NONE',  ( 3.684517577681874894E-13, -30.35309991033441435, -39.73272361458831625 ) ) ;
#270 = ORIENTED_EDGE ( 'NONE', *, *, #163, .F. ) ;
#271 = CARTESIAN_POINT ( 'NONE',  ( 28.86751345948162850, -39.73272361458811019, 9.379623704254106187 ) ) ;
#272 = VERTEX_POINT ( 'NONE', #385 ) ;
#273 = CARTESIAN_POINT ( 'NONE',  ( -17.84110448865428822, -24.55617365942148922, 39.73272361458827362 ) ) ;
#274 = ORIENTED_EDGE ( 'NONE', *, *, #218, .T. ) ;
#275 = LINE ( 'NONE', #33, #205 ) ;
#276 = DIRECTION ( 'NONE',  ( 0.4999999999999993894, -0.1624598481164472585, 0.8506508083520415431 ) ) ;
#277 = LINE ( 'NONE', #400, #38 ) ;
#278 = VERTEX_POINT ( 'NONE', #294 ) ;
#279 = DIRECTION ( 'NONE',  ( 1.168509733417977101E-14, -0.8506508083520385455, -0.5257311121191358128 ) ) ;
#280 = CARTESIAN_POINT ( 'NONE',  ( -17.84110448865431664, 24.55617365942115171, -39.73272361458848678 ) ) ;
#281 = PLANE ( 'NONE',  #232 ) ;
#282 = EDGE_CURVE ( 'NONE', #337, #304, #45, .T. ) ;
#283 = VECTOR ( 'NONE', #126, 1000.000000000000000 ) ;
#284 = LINE ( 'NONE', #285, #50 ) ;
#285 = CARTESIAN_POINT ( 'NONE',  ( -28.86751345948151481, 9.379623704253784666, 39.73272361458827362 ) ) ;
#286 = CARTESIAN_POINT ( 'NONE',  ( 17.84110448865481757, 24.55617365942118724, -39.73272361458823809 ) ) ;
#287 = AXIS2_PLACEMENT_3D ( 'NONE', #6, #308, #230 ) ;
#288 = DIRECTION ( 'NONE',  ( -0.4999999999999906741, 0.6881909602355923417, -0.5257311121191352576 ) ) ;
#289 = VERTEX_POINT ( 'NONE', #141 ) ;
#290 = LINE ( 'NONE', #235, #375 ) ;
#291 = FILL_AREA_STYLE ('',( #51 ) ) ;
#292 = ORIENTED_EDGE ( 'NONE', *, *, #173, .F. ) ;
#293 = PRODUCT_CONTEXT ( 'NONE', #155, 'mechanical' ) ;
#294 = CARTESIAN_POINT ( 'NONE',  ( -46.70861794813596646, 15.17654995516680572, 9.379623704253951644 ) ) ;
#295 = STYLED_ITEM ( 'NONE', ( #15 ), #233 ) ;
#296 = VERTEX_POINT ( 'NONE', #269 ) ;
#297 =( NAMED_UNIT ( * ) PLANE_ANGLE_UNIT ( ) SI_UNIT ( $, .RADIAN. ) );
#298 = EDGE_LOOP ( 'NONE', ( #354, #27, #56, #152, #52 ) ) ;
#299 = CARTESIAN_POINT ( 'NONE',  ( -17.84110448865434506, 24.55617365942110553, -39.73272361458849389 ) ) ;
#300 = VERTEX_POINT ( 'NONE', #260 ) ;
#301 = DIRECTION ( 'NONE',  ( -0.5257311121191322600, -0.7236067977499807125, -0.4472135954999567620 ) ) ;
#302 = EDGE_CURVE ( 'NONE', #22, #337, #201, .T. ) ;
#303 = CARTESIAN_POINT ( 'NONE',  ( 28.86751345948175285, -39.73272361458803204, 9.379623704254044014 ) ) ;
#304 = VERTEX_POINT ( 'NONE', #107 ) ;
#305 = PLANE ( 'NONE',  #167 ) ;
#306 = LINE ( 'NONE', #330, #376 ) ;
#307 = EDGE_CURVE ( 'NONE', #18, #135, #388, .T. ) ;
#308 = DIRECTION ( 'NONE',  ( 0.5257311121191294845, 0.7236067977499804904, 0.4472135954999605922 ) ) ;
#309 = PLANE ( 'NONE',  #287 ) ;
#310 = VECTOR ( 'NONE', #250, 1000.000000000000000 ) ;
#311 = PRODUCT_DEFINITION_CONTEXT ( 'detailed design', #387, 'design' ) ;
#312 = DIRECTION ( 'NONE',  ( -6.744604874597825983E-15, -0.8944271909999165215, 0.4472135954999567620 ) ) ;
#313 = EDGE_CURVE ( 'NONE', #300, #255, #166, .T. ) ;
#314 = ADVANCED_FACE ( 'NONE', ( #326 ), #355, .F. ) ;
#315 = FACE_OUTER_BOUND ( 'NONE', #237, .T. ) ;
#316 = PLANE ( 'NONE',  #164 ) ;
#317 = ORIENTED_EDGE ( 'NONE', *, *, #98, .F. ) ;
#318 =( NAMED_UNIT ( * ) SI_UNIT ( $, .STERADIAN. ) SOLID_ANGLE_UNIT ( ) );
#319 = AXIS2_PLACEMENT_3D ( 'NONE', #226, #312, #93 ) ;
#320 = DIRECTION ( 'NONE',  ( 0.3090169943749454529, 0.4253254041760169413, 0.8506508083520420982 ) ) ;
#321 = ORIENTED_EDGE ( 'NONE', *, *, #365, .F. ) ;
#322 = CARTESIAN_POINT ( 'NONE',  ( -20.88872897341987667, 28.75086890063719025, 17.76901418668611043 ) ) ;
#323 = DIRECTION ( 'NONE',  ( -0.5000000000000065503, -0.1624598481164513941, 0.8506508083520364361 ) ) ;
#324 = CARTESIAN_POINT ( 'NONE',  ( 17.84110448865466481, 24.55617365942125474, -39.73272361458825941 ) ) ;
#325 = DIRECTION ( 'NONE',  ( 0.8090169943749464521, 0.2628655560595734020, 0.5257311121191317049 ) ) ;
#326 = FACE_OUTER_BOUND ( 'NONE', #298, .T. ) ;
#327 = COLOUR_RGB ( '',1.000000000000000000, 0.7529411764705882248, 0.7529411764705882248 ) ;
#328 = VERTEX_POINT ( 'NONE', #13 ) ;
#329 = DIRECTION ( 'NONE',  ( 0.0000000000000000000, 0.0000000000000000000, 1.000000000000000000 ) ) ;
#330 = CARTESIAN_POINT ( 'NONE',  ( -28.86751345948158232, 39.73272361458815993, -9.379623704254026251 ) ) ;
#331 = VERTEX_POINT ( 'NONE', #265 ) ;
#332 = APPLICATION_PROTOCOL_DEFINITION ( 'draft international standard', 'automotive_design', 1998, #155 ) ;
#333 = EDGE_LOOP ( 'NONE', ( #206, #209, #188, #213, #187 ) ) ;
#334 = LINE ( 'NONE', #64, #342 ) ;
#335 = ORIENTED_EDGE ( 'NONE', *, *, #20, .F. ) ;
#336 = LINE ( 'NONE', #254, #11 ) ;
#337 = VERTEX_POINT ( 'NONE', #86 ) ;
#338 = DIRECTION ( 'NONE',  ( 6.739282326598368374E-16, -0.8506508083520409880, -0.5257311121191318160 ) ) ;
#339 = CARTESIAN_POINT ( 'NONE',  ( -2.521131451752959812E-13, 49.11234731884236737, 9.379623704253951644 ) ) ;
#340 = LINE ( 'NONE', #160, #283 ) ;
#341 = CARTESIAN_POINT ( 'NONE',  ( -33.79867346077767820, 10.98185471395115265, -17.76901418668634491 ) ) ;
#342 = VECTOR ( 'NONE', #323, 999.9999999999998863 ) ;
#343 =( GEOMETRIC_REPRESENTATION_CONTEXT ( 3 ) GLOBAL_UNCERTAINTY_ASSIGNED_CONTEXT ( ( #395 ) ) GLOBAL_UNIT_ASSIGNED_CONTEXT ( ( #177, #267, #318 ) ) REPRESENTATION_CONTEXT ( 'NONE', 'WORKASPACE' ) );
#344 = DIRECTION ( 'NONE',  ( 6.210193849458875478E-15, 0.5257311121191312608, -0.8506508083520414321 ) ) ;
#345 = VECTOR ( 'NONE', #154, 1000.000000000000000 ) ;
#346 = EDGE_CURVE ( 'NONE', #139, #142, #21, .T. ) ;
#347 = EDGE_LOOP ( 'NONE', ( #84, #63, #360, #46, #200 ) ) ;
#348 = EDGE_CURVE ( 'NONE', #328, #92, #352, .T. ) ;
#349 = VECTOR ( 'NONE', #72, 1000.000000000000114 ) ;
#350 = EDGE_CURVE ( 'NONE', #225, #300, #207, .T. ) ;
#351 = CARTESIAN_POINT ( 'NONE',  ( 2.774521260834944292E-13, 1.937437841285746197E-27, -39.73272361458838731 ) ) ;
#352 = LINE ( 'NONE', #165, #9 ) ;
#353 = ORIENTED_EDGE ( 'NONE', *, *, #346, .T. ) ;
#354 = ORIENTED_EDGE ( 'NONE', *, *, #384, .T. ) ;
#355 = PLANE ( 'NONE',  #183 ) ;
#356 = ORIENTED_EDGE ( 'NONE', *, *, #346, .F. ) ;
#357 =( LENGTH_UNIT ( ) NAMED_UNIT ( * ) SI_UNIT ( .MILLI., .METRE. ) );
#358 = LINE ( 'NONE', #286, #149 ) ;
#359 = ORIENTED_EDGE ( 'NONE', *, *, #58, .T. ) ;
#360 = ORIENTED_EDGE ( 'NONE', *, *, #302, .F. ) ;
#361 = AXIS2_PLACEMENT_3D ( 'NONE', #88, #65, #217 ) ;
#362 = CARTESIAN_POINT ( 'NONE',  ( 28.86751345948129455, 9.379623704253981842, 39.73272361458838731 ) ) ;
#363 = ORIENTED_EDGE ( 'NONE', *, *, #20, .T. ) ;
#364 = EDGE_LOOP ( 'NONE', ( #359, #241, #14, #391, #171 ) ) ;
#365 = EDGE_CURVE ( 'NONE', #18, #272, #358, .T. ) ;
#366 = VECTOR ( 'NONE', #396, 1000.000000000000000 ) ;
#367 = PLANE ( 'NONE',  #361 ) ;
#368 = ORIENTED_EDGE ( 'NONE', *, *, #34, .T. ) ;
#369 = DIRECTION ( 'NONE',  ( 0.5000000000000039968, -0.6881909602355851252, 0.5257311121191318160 ) ) ;
#370 = FACE_OUTER_BOUND ( 'NONE', #249, .T. ) ;
#371 = DIRECTION ( 'NONE',  ( -0.3090169943749506709, 0.4253254041760218818, 0.8506508083520378793 ) ) ;
#372 = LINE ( 'NONE', #373, #100 ) ;
#373 = CARTESIAN_POINT ( 'NONE',  ( 8.231923711494823083E-14, -49.11234731884237448, -9.379623704253905458 ) ) ;
#374 = CARTESIAN_POINT ( 'NONE',  ( -17.84110448865438059, -24.55617365942134711, 39.73272361458833046 ) ) ;
#375 = VECTOR ( 'NONE', #172, 1000.000000000000000 ) ;
#376 = VECTOR ( 'NONE', #116, 1000.000000000000000 ) ;
#377 = MANIFOLD_SOLID_BREP ( 'Ready', #224 ) ;
#378 = ADVANCED_FACE ( 'NONE', ( #53 ), #29, .F. ) ;
#379 = CARTESIAN_POINT ( 'NONE',  ( 17.84110448865459020, 24.55617365942128671, -39.73272361458825941 ) ) ;
#380 = VECTOR ( 'NONE', #236, 1000.000000000000000 ) ;
#381 = CARTESIAN_POINT ( 'NONE',  ( 17.84110448865471099, -24.55617365942106289, 39.73272361458836599 ) ) ;
#382 = ORIENTED_EDGE ( 'NONE', *, *, #350, .F. ) ;
#383 = PRODUCT ( 'Dodecahedron', 'Dodecahedron', '', ( #293 ) ) ;
#384 = EDGE_CURVE ( 'NONE', #272, #221, #290, .T. ) ;
#385 = CARTESIAN_POINT ( 'NONE',  ( 28.86751345948128744, 39.73272361458837310, -9.379623704253965855 ) ) ;
#386 = ORIENTED_EDGE ( 'NONE', *, *, #77, .T. ) ;
#387 = APPLICATION_CONTEXT ( 'automotive_design' ) ;
#388 = LINE ( 'NONE', #379, #104 ) ;
#389 = ORIENTED_EDGE ( 'NONE', *, *, #66, .T. ) ;
#390 = DIRECTION ( 'NONE',  ( -0.5000000000000047740, 0.6881909602355816835, -0.5257311121191359238 ) ) ;
#391 = ORIENTED_EDGE ( 'NONE', *, *, #350, .T. ) ;
#392 = DIRECTION ( 'NONE',  ( 0.5257311121191377001, -0.7236067977499768267, -0.4472135954999567065 ) ) ;
#393 = EDGE_LOOP ( 'NONE', ( #62, #110, #119, #270, #246 ) ) ;
#394 = VECTOR ( 'NONE', #390, 1000.000000000000000 ) ;
#395 = UNCERTAINTY_MEASURE_WITH_UNIT (LENGTH_MEASURE( 1.000000000000000082E-05 ), #177, 'distance_accuracy_value', 'NONE');
#396 = DIRECTION ( 'NONE',  ( -0.3090169943749546677, 0.9510565162951511997, -2.157854138491048907E-15 ) ) ;
#397 = ORIENTED_EDGE ( 'NONE', *, *, #302, .T. ) ;
#398 = LINE ( 'NONE', #91, #366 ) ;
#399 = PLANE ( 'NONE',  #102 ) ;
#400 = CARTESIAN_POINT ( 'NONE',  ( 5.012421642966694394E-13, -30.35309991033431132, -39.73272361458838731 ) ) ;
ENDSEC;
END-ISO-10303-21;
