ISO-10303-21;
HEADER;
FILE_DESCRIPTION (( 'STEP AP214' ),
    '1' );
FILE_NAME ('octahedron.step',
    '2020-02-07T10:39:56',
    ( '' ),
    ( '' ),
    'SwSTEP 2.0',
    'SolidWorks 2019',
    '' );
FILE_SCHEMA (( 'AUTOMOTIVE_DESIGN' ));
ENDSEC;

DATA;
#1 = FILL_AREA_STYLE_COLOUR ( '', #27 ) ;
#2 = ORIENTED_EDGE ( 'NONE', *, *, #59, .T. ) ;
#3 = CARTESIAN_POINT ( 'NONE',  ( -50.00000000000000000, 3.411725727662792791E-15, 0.0000000000000000000 ) ) ;
#4 = DIRECTION ( 'NONE',  ( 0.0000000000000000000, 0.0000000000000000000, 1.000000000000000000 ) ) ;
#5 = STYLED_ITEM ( 'NONE', ( #40 ), #208 ) ;
#6 = ADVANCED_FACE ( 'NONE', ( #136 ), #166, .T. ) ;
#7 = APPLICATION_CONTEXT ( 'automotive_design' ) ;
#8 = FILL_AREA_STYLE ('',( #1 ) ) ;
#9 = DIRECTION ( 'NONE',  ( -1.481645720267334299E-14, -0.7071067811865474617, 0.7071067811865474617 ) ) ;
#10 = DIRECTION ( 'NONE',  ( -0.7071067811865524577, 9.875400524329097662E-15, 0.7071067811865425767 ) ) ;
#11 = FACE_OUTER_BOUND ( 'NONE', #177, .T. ) ;
#12 = DIRECTION ( 'NONE',  ( -0.7071067811865524577, 9.875400524329097662E-15, 0.7071067811865425767 ) ) ;
#13 = EDGE_CURVE ( 'NONE', #83, #85, #187, .T. ) ;
#14 =( NAMED_UNIT ( * ) SI_UNIT ( $, .STERADIAN. ) SOLID_ANGLE_UNIT ( ) );
#15 = ORIENTED_EDGE ( 'NONE', *, *, #199, .T. ) ;
#16 = MANIFOLD_SOLID_BREP ( 'Ready', #94 ) ;
#17 = ORIENTED_EDGE ( 'NONE', *, *, #30, .T. ) ;
#18 =( NAMED_UNIT ( * ) SI_UNIT ( $, .STERADIAN. ) SOLID_ANGLE_UNIT ( ) );
#19 = ORIENTED_EDGE ( 'NONE', *, *, #13, .T. ) ;
#20 = STYLED_ITEM ( 'NONE', ( #123 ), #16 ) ;
#21 = ORIENTED_EDGE ( 'NONE', *, *, #41, .F. ) ;
#22 =( NAMED_UNIT ( * ) PLANE_ANGLE_UNIT ( ) SI_UNIT ( $, .RADIAN. ) );
#23 = DIRECTION ( 'NONE',  ( 0.7071067811865475727, 0.0000000000000000000, 0.7071067811865475727 ) ) ;
#24 = CARTESIAN_POINT ( 'NONE',  ( 2.373344641186867539E-16, -50.00000000000000711, 0.0000000000000000000 ) ) ;
#25 = DIRECTION ( 'NONE',  ( 1.000000000000000000, 0.0000000000000000000, 0.0000000000000000000 ) ) ;
#26 = ADVANCED_FACE ( 'NONE', ( #104 ), #70, .T. ) ;
#27 = COLOUR_RGB ( '',0.7529411764705882248, 1.000000000000000000, 1.000000000000000000 ) ;
#28 = FACE_OUTER_BOUND ( 'NONE', #102, .T. ) ;
#29 = DIRECTION ( 'NONE',  ( -0.7071067811865474617, 0.7071067811865474617, 0.0000000000000000000 ) ) ;
#30 = EDGE_CURVE ( 'NONE', #101, #144, #150, .T. ) ;
#31 = AXIS2_PLACEMENT_3D ( 'NONE', #126, #191, #74 ) ;
#32 = FACE_OUTER_BOUND ( 'NONE', #116, .T. ) ;
#33 = DIRECTION ( 'NONE',  ( 0.7071067811865475727, 0.0000000000000000000, -0.7071067811865475727 ) ) ;
#34 = VECTOR ( 'NONE', #118, 1000.000000000000114 ) ;
#35 = EDGE_LOOP ( 'NONE', ( #130, #119, #146 ) ) ;
#36 = ORIENTED_EDGE ( 'NONE', *, *, #13, .F. ) ;
#37 = EDGE_CURVE ( 'NONE', #160, #83, #120, .T. ) ;
#38 = SURFACE_STYLE_FILL_AREA ( #8 ) ;
#39 = SURFACE_SIDE_STYLE ('',( #137 ) ) ;
#40 = PRESENTATION_STYLE_ASSIGNMENT (( #133 ) ) ;
#41 = EDGE_CURVE ( 'NONE', #84, #160, #122, .T. ) ;
#42 = DIRECTION ( 'NONE',  ( -0.5773502691896258421, -0.5773502691896258421, 0.5773502691896257311 ) ) ;
#43 = DIRECTION ( 'NONE',  ( -0.5773502691896137407, 0.5773502691896338357, -0.5773502691896298389 ) ) ;
#44 = CARTESIAN_POINT ( 'NONE',  ( 16.66666666666666785, 16.66666666666666785, 16.66666666666666785 ) ) ;
#45 = UNCERTAINTY_MEASURE_WITH_UNIT (LENGTH_MEASURE( 1.000000000000000082E-05 ), #87, 'distance_accuracy_value', 'NONE');
#46 = CARTESIAN_POINT ( 'NONE',  ( 3.491481338843133355E-13, -2.438088387897967762E-27, -50.00000000000000000 ) ) ;
#47 = PLANE ( 'NONE',  #79 ) ;
#48 = AXIS2_PLACEMENT_3D ( 'NONE', #209, #114, #12 ) ;
#49 = APPLICATION_CONTEXT ( 'automotive_design' ) ;
#50 = AXIS2_PLACEMENT_3D ( 'NONE', #44, #155, #192 ) ;
#51 = EDGE_CURVE ( 'NONE', #101, #160, #92, .T. ) ;
#52 = ORIENTED_EDGE ( 'NONE', *, *, #180, .T. ) ;
#53 = DIRECTION ( 'NONE',  ( 4.937700262164531476E-15, 0.7071067811865474617, 0.7071067811865474617 ) ) ;
#54 = EDGE_CURVE ( 'NONE', #85, #144, #99, .T. ) ;
#55 = DIRECTION ( 'NONE',  ( 0.7071067811865474617, -0.7071067811865474617, 0.0000000000000000000 ) ) ;
#56 = PRODUCT_DEFINITION_CONTEXT ( 'detailed design', #49, 'design' ) ;
#57 = DIRECTION ( 'NONE',  ( 0.5773502691896378325, 0.5773502691896177375, -0.5773502691896217343 ) ) ;
#58 = CARTESIAN_POINT ( 'NONE',  ( -50.00000000000000000, 3.411725727662792791E-15, 0.0000000000000000000 ) ) ;
#59 = EDGE_CURVE ( 'NONE', #101, #85, #207, .T. ) ;
#60 =( GEOMETRIC_REPRESENTATION_CONTEXT ( 3 ) GLOBAL_UNCERTAINTY_ASSIGNED_CONTEXT ( ( #45 ) ) GLOBAL_UNIT_ASSIGNED_CONTEXT ( ( #87, #22, #18 ) ) REPRESENTATION_CONTEXT ( 'NONE', 'WORKASPACE' ) );
#61 = LINE ( 'NONE', #95, #145 ) ;
#62 = DIRECTION ( 'NONE',  ( 3.356416179751974785E-18, -0.7071067811865474617, -0.7071067811865474617 ) ) ;
#63 = CARTESIAN_POINT ( 'NONE',  ( 3.491481338843133355E-13, -2.438088387897967762E-27, -50.00000000000000000 ) ) ;
#64 = AXIS2_PLACEMENT_3D ( 'NONE', #165, #147, #23 ) ;
#65 = CARTESIAN_POINT ( 'NONE',  ( 50.00000000000000000, 2.457543542282517208E-15, 0.0000000000000000000 ) ) ;
#66 = PRODUCT ( 'octahedron', 'octahedron', '', ( #183 ) ) ;
#67 = ORIENTED_EDGE ( 'NONE', *, *, #185, .T. ) ;
#68 = EDGE_LOOP ( 'NONE', ( #195, #71, #179 ) ) ;
#69 = VECTOR ( 'NONE', #29, 1000.000000000000114 ) ;
#70 = PLANE ( 'NONE',  #64 ) ;
#71 = ORIENTED_EDGE ( 'NONE', *, *, #54, .T. ) ;
#72 = SURFACE_SIDE_STYLE ('',( #38 ) ) ;
#73 = APPLICATION_PROTOCOL_DEFINITION ( 'draft international standard', 'automotive_design', 1998, #49 ) ;
#74 = DIRECTION ( 'NONE',  ( -0.7071067811865574537, -0.7071067811865376918, -4.937700262164566186E-15 ) ) ;
#75 = CARTESIAN_POINT ( 'NONE',  ( 6.982962677686266711E-13, 50.00000000000000000, 2.438088387897967762E-27 ) ) ;
#76 = AXIS2_PLACEMENT_3D ( 'NONE', #106, #4, #25 ) ;
#77 = LINE ( 'NONE', #188, #86 ) ;
#78 = LINE ( 'NONE', #204, #190 ) ;
#79 = AXIS2_PLACEMENT_3D ( 'NONE', #96, #151, #33 ) ;
#80 = PRODUCT_DEFINITION_SHAPE ( 'NONE', 'NONE',  #131 ) ;
#81 = ORIENTED_EDGE ( 'NONE', *, *, #51, .F. ) ;
#82 = VECTOR ( 'NONE', #125, 1000.000000000000114 ) ;
#83 = VERTEX_POINT ( 'NONE', #98 ) ;
#84 = VERTEX_POINT ( 'NONE', #193 ) ;
#85 = VERTEX_POINT ( 'NONE', #109 ) ;
#86 = VECTOR ( 'NONE', #62, 1000.000000000000114 ) ;
#87 =( LENGTH_UNIT ( ) NAMED_UNIT ( * ) SI_UNIT ( .MILLI., .METRE. ) );
#88 = CARTESIAN_POINT ( 'NONE',  ( 16.66666666666701246, 16.66666666666642982, -16.66666666666654351 ) ) ;
#89 =( NAMED_UNIT ( * ) SI_UNIT ( $, .STERADIAN. ) SOLID_ANGLE_UNIT ( ) );
#90 = UNCERTAINTY_MEASURE_WITH_UNIT (LENGTH_MEASURE( 1.000000000000000082E-05 ), #132, 'distance_accuracy_value', 'NONE');
#91 = FILL_AREA_STYLE_COLOUR ( '', #159 ) ;
#92 = LINE ( 'NONE', #63, #174 ) ;
#93 = FILL_AREA_STYLE ('',( #91 ) ) ;
#94 = CLOSED_SHELL ( 'NONE', ( #196, #6, #178, #108, #176, #26, #170, #162 ) ) ;
#95 = CARTESIAN_POINT ( 'NONE',  ( 3.491481338843133355E-13, -2.438088387897967762E-27, -50.00000000000000000 ) ) ;
#96 = CARTESIAN_POINT ( 'NONE',  ( 16.66666666666666785, -16.66666666666666785, 16.66666666666666785 ) ) ;
#97 = MECHANICAL_DESIGN_GEOMETRIC_PRESENTATION_REPRESENTATION (  '', ( #20 ), #213 ) ;
#98 = CARTESIAN_POINT ( 'NONE',  ( 2.373344641186867539E-16, -50.00000000000000711, 0.0000000000000000000 ) ) ;
#99 = LINE ( 'NONE', #65, #69 ) ;
#100 = PRESENTATION_LAYER_ASSIGNMENT (  '', '', ( #20 ) ) ;
#101 = VERTEX_POINT ( 'NONE', #46 ) ;
#102 = EDGE_LOOP ( 'NONE', ( #2, #36, #134 ) ) ;
#103 = SURFACE_STYLE_USAGE ( .BOTH. , #72 ) ;
#104 = FACE_OUTER_BOUND ( 'NONE', #164, .T. ) ;
#105 = ORIENTED_EDGE ( 'NONE', *, *, #37, .T. ) ;
#106 = CARTESIAN_POINT ( 'NONE',  ( 0.0000000000000000000, 0.0000000000000000000, 0.0000000000000000000 ) ) ;
#107 = CARTESIAN_POINT ( 'NONE',  ( 0.0000000000000000000, 0.0000000000000000000, 50.00000000000000000 ) ) ;
#108 = ADVANCED_FACE ( 'NONE', ( #28 ), #175, .T. ) ;
#109 = CARTESIAN_POINT ( 'NONE',  ( 50.00000000000000000, 2.457543542282517208E-15, 0.0000000000000000000 ) ) ;
#110 = MECHANICAL_DESIGN_GEOMETRIC_PRESENTATION_REPRESENTATION (  '', ( #5 ), #60 ) ;
#111 = DIRECTION ( 'NONE',  ( -0.7071067811865524577, 9.910155438405280726E-15, 0.7071067811865426878 ) ) ;
#112 = LINE ( 'NONE', #172, #201 ) ;
#113 = CARTESIAN_POINT ( 'NONE',  ( 3.491481338843133355E-13, -2.438088387897967762E-27, -50.00000000000000000 ) ) ;
#114 = DIRECTION ( 'NONE',  ( -0.5773502691896297279, -0.5773502691896177375, -0.5773502691896298389 ) ) ;
#115 = APPLICATION_PROTOCOL_DEFINITION ( 'draft international standard', 'automotive_design', 1998, #7 ) ;
#116 = EDGE_LOOP ( 'NONE', ( #214, #19, #211 ) ) ;
#117 = VECTOR ( 'NONE', #53, 1000.000000000000114 ) ;
#118 = DIRECTION ( 'NONE',  ( 0.7071067811865474617, 0.7071067811865474617, 0.0000000000000000000 ) ) ;
#119 = ORIENTED_EDGE ( 'NONE', *, *, #199, .F. ) ;
#120 = LINE ( 'NONE', #3, #181 ) ;
#121 = VECTOR ( 'NONE', #167, 1000.000000000000114 ) ;
#122 = LINE ( 'NONE', #107, #121 ) ;
#123 = PRESENTATION_STYLE_ASSIGNMENT (( #103 ) ) ;
#124 = PLANE ( 'NONE',  #135 ) ;
#125 = DIRECTION ( 'NONE',  ( -0.7071067811865474617, -0.7071067811865474617, 0.0000000000000000000 ) ) ;
#126 = CARTESIAN_POINT ( 'NONE',  ( 16.66666666666655416, -16.66666666666690233, -16.66666666666654706 ) ) ;
#127 = DIRECTION ( 'NONE',  ( 0.7071067811865426878, -9.827151436377449046E-15, 0.7071067811865524577 ) ) ;
#128 = PRESENTATION_LAYER_ASSIGNMENT (  '', '', ( #5 ) ) ;
#129 =( GEOMETRIC_REPRESENTATION_CONTEXT ( 3 ) GLOBAL_UNCERTAINTY_ASSIGNED_CONTEXT ( ( #169 ) ) GLOBAL_UNIT_ASSIGNED_CONTEXT ( ( #154, #158, #14 ) ) REPRESENTATION_CONTEXT ( 'NONE', 'WORKASPACE' ) );
#130 = ORIENTED_EDGE ( 'NONE', *, *, #51, .T. ) ;
#131 = PRODUCT_DEFINITION ( 'UNKNOWN', '', #205, #56 ) ;
#132 =( LENGTH_UNIT ( ) NAMED_UNIT ( * ) SI_UNIT ( .MILLI., .METRE. ) );
#133 = SURFACE_STYLE_USAGE ( .BOTH. , #39 ) ;
#134 = ORIENTED_EDGE ( 'NONE', *, *, #180, .F. ) ;
#135 = AXIS2_PLACEMENT_3D ( 'NONE', #189, #43, #10 ) ;
#136 = FACE_OUTER_BOUND ( 'NONE', #194, .T. ) ;
#137 = SURFACE_STYLE_FILL_AREA ( #93 ) ;
#138 = FACE_OUTER_BOUND ( 'NONE', #35, .T. ) ;
#139 = LINE ( 'NONE', #206, #82 ) ;
#140 = AXIS2_PLACEMENT_3D ( 'NONE', #173, #42, #143 ) ;
#141 = DIRECTION ( 'NONE',  ( 0.7071067811865474617, 3.475491407618352620E-17, -0.7071067811865474617 ) ) ;
#142 = FACE_OUTER_BOUND ( 'NONE', #182, .T. ) ;
#143 = DIRECTION ( 'NONE',  ( 0.7071067811865474617, -0.7071067811865474617, 0.0000000000000000000 ) ) ;
#144 = VERTEX_POINT ( 'NONE', #75 ) ;
#145 = VECTOR ( 'NONE', #9, 1000.000000000000114 ) ;
#146 = ORIENTED_EDGE ( 'NONE', *, *, #30, .F. ) ;
#147 = DIRECTION ( 'NONE',  ( -0.5773502691896258421, 0.5773502691896258421, 0.5773502691896258421 ) ) ;
#148 = DIRECTION ( 'NONE',  ( -0.7071067811865425767, 9.875400524329028242E-15, -0.7071067811865524577 ) ) ;
#149 = SHAPE_DEFINITION_REPRESENTATION ( #80, #208 ) ;
#150 = LINE ( 'NONE', #200, #117 ) ;
#151 = DIRECTION ( 'NONE',  ( 0.5773502691896258421, -0.5773502691896258421, 0.5773502691896258421 ) ) ;
#152 = PLANE ( 'NONE',  #50 ) ;
#153 = PRODUCT_RELATED_PRODUCT_CATEGORY ( 'part', '', ( #66 ) ) ;
#154 =( LENGTH_UNIT ( ) NAMED_UNIT ( * ) SI_UNIT ( .MILLI., .METRE. ) );
#155 = DIRECTION ( 'NONE',  ( 0.5773502691896258421, 0.5773502691896258421, 0.5773502691896258421 ) ) ;
#156 = FACE_OUTER_BOUND ( 'NONE', #68, .T. ) ;
#157 = EDGE_CURVE ( 'NONE', #84, #83, #77, .T. ) ;
#158 =( NAMED_UNIT ( * ) PLANE_ANGLE_UNIT ( ) SI_UNIT ( $, .RADIAN. ) );
#159 = COLOUR_RGB ( '',0.7529411764705882248, 1.000000000000000000, 1.000000000000000000 ) ;
#160 = VERTEX_POINT ( 'NONE', #58 ) ;
#161 = VECTOR ( 'NONE', #127, 1000.000000000000000 ) ;
#162 = ADVANCED_FACE ( 'NONE', ( #142 ), #171, .T. ) ;
#163 = ORIENTED_EDGE ( 'NONE', *, *, #41, .T. ) ;
#164 = EDGE_LOOP ( 'NONE', ( #67, #15, #21 ) ) ;
#165 = CARTESIAN_POINT ( 'NONE',  ( -16.66666666666666430, 16.66666666666666430, 16.66666666666666430 ) ) ;
#166 = PLANE ( 'NONE',  #184 ) ;
#167 = DIRECTION ( 'NONE',  ( -0.7071067811865474617, 4.824908795157937534E-17, -0.7071067811865474617 ) ) ;
#168 = PLANE ( 'NONE',  #48 ) ;
#169 = UNCERTAINTY_MEASURE_WITH_UNIT (LENGTH_MEASURE( 1.000000000000000082E-05 ), #154, 'distance_accuracy_value', 'NONE');
#170 = ADVANCED_FACE ( 'NONE', ( #32 ), #47, .T. ) ;
#171 = PLANE ( 'NONE',  #140 ) ;
#172 = CARTESIAN_POINT ( 'NONE',  ( 0.0000000000000000000, 0.0000000000000000000, 50.00000000000000000 ) ) ;
#173 = CARTESIAN_POINT ( 'NONE',  ( -16.66666666666667140, -16.66666666666667140, 16.66666666666666785 ) ) ;
#174 = VECTOR ( 'NONE', #111, 1000.000000000000000 ) ;
#175 = PLANE ( 'NONE',  #31 ) ;
#176 = ADVANCED_FACE ( 'NONE', ( #156 ), #152, .T. ) ;
#177 = EDGE_LOOP ( 'NONE', ( #52, #186, #81 ) ) ;
#178 = ADVANCED_FACE ( 'NONE', ( #11 ), #168, .T. ) ;
#179 = ORIENTED_EDGE ( 'NONE', *, *, #185, .F. ) ;
#180 = EDGE_CURVE ( 'NONE', #101, #83, #61, .T. ) ;
#181 = VECTOR ( 'NONE', #55, 1000.000000000000114 ) ;
#182 = EDGE_LOOP ( 'NONE', ( #163, #105, #203 ) ) ;
#183 = PRODUCT_CONTEXT ( 'NONE', #7, 'mechanical' ) ;
#184 = AXIS2_PLACEMENT_3D ( 'NONE', #88, #57, #148 ) ;
#185 = EDGE_CURVE ( 'NONE', #84, #144, #78, .T. ) ;
#186 = ORIENTED_EDGE ( 'NONE', *, *, #37, .F. ) ;
#187 = LINE ( 'NONE', #24, #34 ) ;
#188 = CARTESIAN_POINT ( 'NONE',  ( 0.0000000000000000000, 0.0000000000000000000, 50.00000000000000000 ) ) ;
#189 = CARTESIAN_POINT ( 'NONE',  ( -16.66666666666631613, 16.66666666666689878, -16.66666666666678509 ) ) ;
#190 = VECTOR ( 'NONE', #210, 1000.000000000000114 ) ;
#191 = DIRECTION ( 'NONE',  ( 0.5773502691896217343, -0.5773502691896338357, -0.5773502691896217343 ) ) ;
#192 = DIRECTION ( 'NONE',  ( 0.7071067811865475727, 0.0000000000000000000, -0.7071067811865475727 ) ) ;
#193 = CARTESIAN_POINT ( 'NONE',  ( 0.0000000000000000000, 0.0000000000000000000, 50.00000000000000000 ) ) ;
#194 = EDGE_LOOP ( 'NONE', ( #17, #197, #202 ) ) ;
#195 = ORIENTED_EDGE ( 'NONE', *, *, #212, .T. ) ;
#196 = ADVANCED_FACE ( 'NONE', ( #138 ), #124, .T. ) ;
#197 = ORIENTED_EDGE ( 'NONE', *, *, #54, .F. ) ;
#198 =( NAMED_UNIT ( * ) PLANE_ANGLE_UNIT ( ) SI_UNIT ( $, .RADIAN. ) );
#199 = EDGE_CURVE ( 'NONE', #144, #160, #139, .T. ) ;
#200 = CARTESIAN_POINT ( 'NONE',  ( 3.491481338843133355E-13, -2.438088387897967762E-27, -50.00000000000000000 ) ) ;
#201 = VECTOR ( 'NONE', #141, 1000.000000000000114 ) ;
#202 = ORIENTED_EDGE ( 'NONE', *, *, #59, .F. ) ;
#203 = ORIENTED_EDGE ( 'NONE', *, *, #157, .F. ) ;
#204 = CARTESIAN_POINT ( 'NONE',  ( 0.0000000000000000000, 0.0000000000000000000, 50.00000000000000000 ) ) ;
#205 = PRODUCT_DEFINITION_FORMATION_WITH_SPECIFIED_SOURCE ( 'ANY', '', #66, .NOT_KNOWN. ) ;
#206 = CARTESIAN_POINT ( 'NONE',  ( 0.0000000000000000000, 50.00000000000000000, 0.0000000000000000000 ) ) ;
#207 = LINE ( 'NONE', #113, #161 ) ;
#208 = ADVANCED_BREP_SHAPE_REPRESENTATION ( 'octahedron', ( #16, #76 ), #129 ) ;
#209 = CARTESIAN_POINT ( 'NONE',  ( -16.66666666666678154, -16.66666666666643337, -16.66666666666678509 ) ) ;
#210 = DIRECTION ( 'NONE',  ( 0.0000000000000000000, 0.7071067811865474617, -0.7071067811865474617 ) ) ;
#211 = ORIENTED_EDGE ( 'NONE', *, *, #212, .F. ) ;
#212 = EDGE_CURVE ( 'NONE', #84, #85, #112, .T. ) ;
#213 =( GEOMETRIC_REPRESENTATION_CONTEXT ( 3 ) GLOBAL_UNCERTAINTY_ASSIGNED_CONTEXT ( ( #90 ) ) GLOBAL_UNIT_ASSIGNED_CONTEXT ( ( #132, #198, #89 ) ) REPRESENTATION_CONTEXT ( 'NONE', 'WORKASPACE' ) );
#214 = ORIENTED_EDGE ( 'NONE', *, *, #157, .T. ) ;
ENDSEC;
END-ISO-10303-21;
