ISO-10303-21;
HEADER;
FILE_DESCRIPTION (( 'STEP AP214' ),
    '1' );
FILE_NAME ('tetrahedron.step',
    '2020-02-07T10:44:03',
    ( '' ),
    ( '' ),
    'SwSTEP 2.0',
    'SolidWorks 2019',
    '' );
FILE_SCHEMA (( 'AUTOMOTIVE_DESIGN' ));
ENDSEC;

DATA;
#1 = VERTEX_POINT ( 'NONE', #66 ) ;
#2 = EDGE_CURVE ( 'NONE', #124, #31, #89, .T. ) ;
#3 =( NAMED_UNIT ( * ) PLANE_ANGLE_UNIT ( ) SI_UNIT ( $, .RADIAN. ) );
#4 = COLOUR_RGB ( '',0.7529411764705882248, 1.000000000000000000, 0.7529411764705882248 ) ;
#5 = MANIFOLD_SOLID_BREP ( 'Ready', #64 ) ;
#6 = DIRECTION ( 'NONE',  ( -0.5000000000000001110, 0.2886751345948129210, 0.8164965809277259234 ) ) ;
#7 = PRESENTATION_STYLE_ASSIGNMENT (( #14 ) ) ;
#8 = VECTOR ( 'NONE', #81, 1000.000000000000114 ) ;
#9 = ORIENTED_EDGE ( 'NONE', *, *, #2, .T. ) ;
#10 = EDGE_LOOP ( 'NONE', ( #111, #103, #126 ) ) ;
#11 = EDGE_LOOP ( 'NONE', ( #112, #73, #20 ) ) ;
#12 = PRODUCT ( 'tetrahedron', 'tetrahedron', '', ( #83 ) ) ;
#13 = ORIENTED_EDGE ( 'NONE', *, *, #128, .T. ) ;
#14 = SURFACE_STYLE_USAGE ( .BOTH. , #27 ) ;
#15 = CARTESIAN_POINT ( 'NONE',  ( -40.82482904638630572, -23.57022603955158857, -16.66666666666667851 ) ) ;
#16 = DIRECTION ( 'NONE',  ( -0.8164965809277259234, -0.4714045207910319002, -0.3333333333333333148 ) ) ;
#17 = PRODUCT_RELATED_PRODUCT_CATEGORY ( 'part', '', ( #12 ) ) ;
#18 = PRESENTATION_LAYER_ASSIGNMENT (  '', '', ( #78 ) ) ;
#19 = APPLICATION_CONTEXT ( 'automotive_design' ) ;
#20 = ORIENTED_EDGE ( 'NONE', *, *, #119, .F. ) ;
#21 = CARTESIAN_POINT ( 'NONE',  ( -40.82482904638630572, -23.57022603955158857, -16.66666666666667851 ) ) ;
#22 = SURFACE_STYLE_USAGE ( .BOTH. , #110 ) ;
#23 = PLANE ( 'NONE',  #30 ) ;
#24 = CARTESIAN_POINT ( 'NONE',  ( 40.82482904638630572, -23.57022603955158502, -16.66666666666665719 ) ) ;
#25 = FILL_AREA_STYLE_COLOUR ( '', #38 ) ;
#26 = PRODUCT_DEFINITION_SHAPE ( 'NONE', 'NONE',  #57 ) ;
#27 = SURFACE_SIDE_STYLE ('',( #58 ) ) ;
#28 = LINE ( 'NONE', #82, #107 ) ;
#29 = SHAPE_DEFINITION_REPRESENTATION ( #26, #36 ) ;
#30 = AXIS2_PLACEMENT_3D ( 'NONE', #96, #16, #97 ) ;
#31 = VERTEX_POINT ( 'NONE', #74 ) ;
#32 = FILL_AREA_STYLE ('',( #48 ) ) ;
#33 = DIRECTION ( 'NONE',  ( 9.614813431917821547E-17, 0.9428090415820633563, -0.3333333333333333703 ) ) ;
#34 = EDGE_CURVE ( 'NONE', #49, #124, #28, .T. ) ;
#35 = CARTESIAN_POINT ( 'NONE',  ( -13.60827634879543879, 7.856742013183861673, 5.555555555555558911 ) ) ;
#36 = ADVANCED_BREP_SHAPE_REPRESENTATION ( 'tetrahedron', ( #5, #122 ), #85 ) ;
#37 =( NAMED_UNIT ( * ) SI_UNIT ( $, .STERADIAN. ) SOLID_ANGLE_UNIT ( ) );
#38 = COLOUR_RGB ( '',0.7529411764705882248, 1.000000000000000000, 0.7529411764705882248 ) ;
#39 = EDGE_LOOP ( 'NONE', ( #9, #61, #102 ) ) ;
#40 = ADVANCED_FACE ( 'NONE', ( #80 ), #113, .F. ) ;
#41 = LINE ( 'NONE', #99, #100 ) ;
#42 = PLANE ( 'NONE',  #71 ) ;
#43 = DIRECTION ( 'NONE',  ( 0.4999999999999998890, 0.8660254037844387076, 0.0000000000000000000 ) ) ;
#44 =( LENGTH_UNIT ( ) NAMED_UNIT ( * ) SI_UNIT ( .MILLI., .METRE. ) );
#45 = CARTESIAN_POINT ( 'NONE',  ( 0.0000000000000000000, 0.0000000000000000000, 0.0000000000000000000 ) ) ;
#46 = EDGE_CURVE ( 'NONE', #49, #31, #114, .T. ) ;
#47 = AXIS2_PLACEMENT_3D ( 'NONE', #117, #33, #106 ) ;
#48 = FILL_AREA_STYLE_COLOUR ( '', #4 ) ;
#49 = VERTEX_POINT ( 'NONE', #24 ) ;
#50 = UNCERTAINTY_MEASURE_WITH_UNIT (LENGTH_MEASURE( 1.000000000000000082E-05 ), #65, 'distance_accuracy_value', 'NONE');
#51 = EDGE_LOOP ( 'NONE', ( #13, #63, #95 ) ) ;
#52 =( NAMED_UNIT ( * ) SI_UNIT ( $, .STERADIAN. ) SOLID_ANGLE_UNIT ( ) );
#53 = PRESENTATION_LAYER_ASSIGNMENT (  '', '', ( #98 ) ) ;
#54 = LINE ( 'NONE', #132, #8 ) ;
#55 = DIRECTION ( 'NONE',  ( 1.571709109130881635E-16, -0.5773502691896257311, 0.8164965809277260345 ) ) ;
#56 = DIRECTION ( 'NONE',  ( -1.000000000000000000, -4.249187360970369772E-17, -2.549512416582222110E-16 ) ) ;
#57 = PRODUCT_DEFINITION ( 'UNKNOWN', '', #70, #62 ) ;
#58 = SURFACE_STYLE_FILL_AREA ( #69 ) ;
#59 = AXIS2_PLACEMENT_3D ( 'NONE', #90, #92, #129 ) ;
#60 = VECTOR ( 'NONE', #101, 1000.000000000000114 ) ;
#61 = ORIENTED_EDGE ( 'NONE', *, *, #75, .F. ) ;
#62 = PRODUCT_DEFINITION_CONTEXT ( 'detailed design', #19, 'design' ) ;
#63 = ORIENTED_EDGE ( 'NONE', *, *, #119, .T. ) ;
#64 = CLOSED_SHELL ( 'NONE', ( #115, #133, #40, #104 ) ) ;
#65 =( LENGTH_UNIT ( ) NAMED_UNIT ( * ) SI_UNIT ( .MILLI., .METRE. ) );
#66 = CARTESIAN_POINT ( 'NONE',  ( -1.283295113818344364E-14, 47.14045207910317714, -16.66666666666666785 ) ) ;
#67 =( LENGTH_UNIT ( ) NAMED_UNIT ( * ) SI_UNIT ( .MILLI., .METRE. ) );
#68 = DIRECTION ( 'NONE',  ( 0.8164965809277260345, -0.4714045207910315671, -0.3333333333333334814 ) ) ;
#69 = FILL_AREA_STYLE ('',( #25 ) ) ;
#70 = PRODUCT_DEFINITION_FORMATION_WITH_SPECIFIED_SOURCE ( 'ANY', '', #12, .NOT_KNOWN. ) ;
#71 = AXIS2_PLACEMENT_3D ( 'NONE', #35, #68, #43 ) ;
#72 = LINE ( 'NONE', #15, #88 ) ;
#73 = ORIENTED_EDGE ( 'NONE', *, *, #46, .F. ) ;
#74 = CARTESIAN_POINT ( 'NONE',  ( 6.938893903907228378E-15, -3.469446951953614189E-15, 49.99999999999997868 ) ) ;
#75 = EDGE_CURVE ( 'NONE', #1, #31, #41, .T. ) ;
#76 = CARTESIAN_POINT ( 'NONE',  ( -40.82482904638630572, -23.57022603955158857, -16.66666666666667851 ) ) ;
#77 =( GEOMETRIC_REPRESENTATION_CONTEXT ( 3 ) GLOBAL_UNCERTAINTY_ASSIGNED_CONTEXT ( ( #121 ) ) GLOBAL_UNIT_ASSIGNED_CONTEXT ( ( #44, #136, #84 ) ) REPRESENTATION_CONTEXT ( 'NONE', 'WORKASPACE' ) );
#78 = STYLED_ITEM ( 'NONE', ( #7 ), #36 ) ;
#79 = CARTESIAN_POINT ( 'NONE',  ( 40.82482904638630572, -23.57022603955158502, -16.66666666666665719 ) ) ;
#80 = FACE_OUTER_BOUND ( 'NONE', #10, .T. ) ;
#81 = DIRECTION ( 'NONE',  ( 0.5000000000000002220, -0.8660254037844384856, 1.274756208291110808E-16 ) ) ;
#82 = CARTESIAN_POINT ( 'NONE',  ( 40.82482904638630572, -23.57022603955158502, -16.66666666666665719 ) ) ;
#83 = PRODUCT_CONTEXT ( 'NONE', #125, 'mechanical' ) ;
#84 =( NAMED_UNIT ( * ) SI_UNIT ( $, .STERADIAN. ) SOLID_ANGLE_UNIT ( ) );
#85 =( GEOMETRIC_REPRESENTATION_CONTEXT ( 3 ) GLOBAL_UNCERTAINTY_ASSIGNED_CONTEXT ( ( #94 ) ) GLOBAL_UNIT_ASSIGNED_CONTEXT ( ( #67, #3, #37 ) ) REPRESENTATION_CONTEXT ( 'NONE', 'WORKASPACE' ) );
#86 = SURFACE_STYLE_FILL_AREA ( #32 ) ;
#87 =( NAMED_UNIT ( * ) PLANE_ANGLE_UNIT ( ) SI_UNIT ( $, .RADIAN. ) );
#88 = VECTOR ( 'NONE', #108, 1000.000000000000114 ) ;
#89 = LINE ( 'NONE', #21, #60 ) ;
#90 = CARTESIAN_POINT ( 'NONE',  ( 4.249187360970370315E-15, 9.488521999635895461E-31, -16.66666666666666785 ) ) ;
#91 = FACE_OUTER_BOUND ( 'NONE', #39, .T. ) ;
#92 = DIRECTION ( 'NONE',  ( 2.549512416582222110E-16, 5.693113199781537452E-32, -1.000000000000000000 ) ) ;
#93 = FACE_OUTER_BOUND ( 'NONE', #51, .T. ) ;
#94 = UNCERTAINTY_MEASURE_WITH_UNIT (LENGTH_MEASURE( 1.000000000000000082E-05 ), #67, 'distance_accuracy_value', 'NONE');
#95 = ORIENTED_EDGE ( 'NONE', *, *, #34, .T. ) ;
#96 = CARTESIAN_POINT ( 'NONE',  ( 13.60827634879542991, 7.856742013183861673, 5.555555555555554470 ) ) ;
#97 = DIRECTION ( 'NONE',  ( 0.5000000000000002220, -0.8660254037844385966, 0.0000000000000000000 ) ) ;
#98 = STYLED_ITEM ( 'NONE', ( #120 ), #5 ) ;
#99 = CARTESIAN_POINT ( 'NONE',  ( -1.283295113818344364E-14, 47.14045207910317714, -16.66666666666666785 ) ) ;
#100 = VECTOR ( 'NONE', #55, 1000.000000000000114 ) ;
#101 = DIRECTION ( 'NONE',  ( 0.4999999999999999445, 0.2886751345948128100, 0.8164965809277261455 ) ) ;
#102 = ORIENTED_EDGE ( 'NONE', *, *, #128, .F. ) ;
#103 = ORIENTED_EDGE ( 'NONE', *, *, #2, .F. ) ;
#104 = ADVANCED_FACE ( 'NONE', ( #91 ), #42, .F. ) ;
#105 = PLANE ( 'NONE',  #59 ) ;
#106 = DIRECTION ( 'NONE',  ( 0.0000000000000000000, 0.3333333333333333148, 0.9428090415820632453 ) ) ;
#107 = VECTOR ( 'NONE', #56, 1000.000000000000000 ) ;
#108 = DIRECTION ( 'NONE',  ( 0.4999999999999997780, 0.8660254037844387076, 1.274756208291110808E-16 ) ) ;
#109 = DIRECTION ( 'NONE',  ( 0.0000000000000000000, 0.0000000000000000000, 1.000000000000000000 ) ) ;
#110 = SURFACE_SIDE_STYLE ('',( #86 ) ) ;
#111 = ORIENTED_EDGE ( 'NONE', *, *, #46, .T. ) ;
#112 = ORIENTED_EDGE ( 'NONE', *, *, #75, .T. ) ;
#113 = PLANE ( 'NONE',  #47 ) ;
#114 = LINE ( 'NONE', #79, #123 ) ;
#115 = ADVANCED_FACE ( 'NONE', ( #93 ), #105, .T. ) ;
#116 = APPLICATION_PROTOCOL_DEFINITION ( 'draft international standard', 'automotive_design', 1998, #125 ) ;
#117 = CARTESIAN_POINT ( 'NONE',  ( -1.602468905319637352E-15, -15.71348402636772690, 5.555555555555557135 ) ) ;
#118 = DIRECTION ( 'NONE',  ( 1.000000000000000000, 0.0000000000000000000, 0.0000000000000000000 ) ) ;
#119 = EDGE_CURVE ( 'NONE', #1, #49, #54, .T. ) ;
#120 = PRESENTATION_STYLE_ASSIGNMENT (( #22 ) ) ;
#121 = UNCERTAINTY_MEASURE_WITH_UNIT (LENGTH_MEASURE( 1.000000000000000082E-05 ), #44, 'distance_accuracy_value', 'NONE');
#122 = AXIS2_PLACEMENT_3D ( 'NONE', #45, #109, #118 ) ;
#123 = VECTOR ( 'NONE', #6, 1000.000000000000000 ) ;
#124 = VERTEX_POINT ( 'NONE', #76 ) ;
#125 = APPLICATION_CONTEXT ( 'automotive_design' ) ;
#126 = ORIENTED_EDGE ( 'NONE', *, *, #34, .F. ) ;
#127 = MECHANICAL_DESIGN_GEOMETRIC_PRESENTATION_REPRESENTATION (  '', ( #78 ), #77 ) ;
#128 = EDGE_CURVE ( 'NONE', #124, #1, #72, .T. ) ;
#129 = DIRECTION ( 'NONE',  ( -1.000000000000000000, 0.0000000000000000000, -2.549512416582222110E-16 ) ) ;
#130 = FACE_OUTER_BOUND ( 'NONE', #11, .T. ) ;
#131 = MECHANICAL_DESIGN_GEOMETRIC_PRESENTATION_REPRESENTATION (  '', ( #98 ), #134 ) ;
#132 = CARTESIAN_POINT ( 'NONE',  ( -1.283295113818344364E-14, 47.14045207910317714, -16.66666666666666785 ) ) ;
#133 = ADVANCED_FACE ( 'NONE', ( #130 ), #23, .F. ) ;
#134 =( GEOMETRIC_REPRESENTATION_CONTEXT ( 3 ) GLOBAL_UNCERTAINTY_ASSIGNED_CONTEXT ( ( #50 ) ) GLOBAL_UNIT_ASSIGNED_CONTEXT ( ( #65, #87, #52 ) ) REPRESENTATION_CONTEXT ( 'NONE', 'WORKASPACE' ) );
#135 = APPLICATION_PROTOCOL_DEFINITION ( 'draft international standard', 'automotive_design', 1998, #19 ) ;
#136 =( NAMED_UNIT ( * ) PLANE_ANGLE_UNIT ( ) SI_UNIT ( $, .RADIAN. ) );
ENDSEC;
END-ISO-10303-21;
